Мумий Тролль - Морская капуста, аккорды

Прокрутка
Тональность
Шрифт
100
Intro: 
E|---3--2---3--2--3-3--2-3-2-
B|---3--3---3--3--3-3--3-3-3-
G|---3--3---3--3--3-3--3-3-3-
D|---------------------------
A|---------------------------
E|---------------------------

  Dm                Gm     
Помельче порежу морскую капусту
   A7                    Dm
Не знаю ты любишь ли? но будет вкусно
     Gm                    Dm
Никогда ведь не скажешь придешь ли на вечер
      A7          Gm          A7
Так адрес узнаешь а отметить и нечем

Chorus (guitar solo): 
E|---------------------------------------
B|-/15-14-15-17-14-15-/15-14-15-17-14-15-
G|---------------------------------------
D|---------------------------------------
A|---------------------------------------
E|---------------------------------------

E|---------------------------------------------
B|---------------------------------------------
G|-14h15po14-10h12po10-------------------------
D|---------------------------12-11-12-14-11-12-
A|---------------------------------------------
E|---------------------------------------------

E|--------------------------------
B|-10-11-10-10-11-10-10-11-11b-11-
G|--------------------------------
D|--------------------------------
A|--------------------------------
E|--------------------------------

E|------------------------------------------------
B|----------10--------------10h11-11B-10----------
G|---10h12-----12po10-9------------------12po10-9-
D|------------------------------------------------
A|------------------------------------------------
E|------------------------------------------------

E|--------------------------/20-18-17-21-22-22b-
B|-----17-18-20-20b-----------------------------
G|-/19----------------19------------------------
D|----------------------------------------------
A|----------------------------------------------
E|----------------------------------------------

E|---3--2---3--2--3-3--2-3-2-
B|---3--3---3--3--3-3--3-3-3-
G|---3--3---3--3--3-3--3-3-3-
D|---------------------------
A|---------------------------
E|---------------------------

 Dm               Gm   
Еще я готов развлекать тебя песней
   A7                        Dm
Но только в других гостях всегда интересней
    Gm                Dm
Там смотрят кино и целуются в уста
    A7                  Gm          A7
А я режу режу режу режу   морскую капусту

Chorus (guitar solo): 
E|---------------------------------------
B|-/15-14-15-17-14-15-/15-14-15-17-14-15-
G|---------------------------------------
D|---------------------------------------
A|---------------------------------------
E|---------------------------------------

E|---------------------------------------------
B|---------------------------------------------
G|-14h15po14-10h12po10-------------------------
D|---------------------------12-11-12-14-11-12-
A|---------------------------------------------
E|---------------------------------------------

E|--------------------------------
B|-10-11-10-10-11-10-10-11-11b-11-
G|--------------------------------
D|--------------------------------
A|--------------------------------
E|--------------------------------

E|------------------------------------------------
B|----------10--------------10h11-11B-10----------
G|---10h12-----12po10-9------------------12po10-9-
D|------------------------------------------------
A|------------------------------------------------
E|------------------------------------------------

E|--------------------------/20-18-17-21-22-22b-
B|-----17-18-20-20b-----------------------------
G|-/19----------------19------------------------
D|----------------------------------------------
A|----------------------------------------------
E|----------------------------------------------

E|---3--2---3--2--3-3--2-3-2-
B|---3--3---3--3--3-3--3-3-3-
G|---3--3---3--3--3-3--3-3-3-
D|---------------------------
A|---------------------------
E|---------------------------
 
 

Видео