Мумий Тролль - На удачу, аккорды

Прокрутка
Тональность
Шрифт
100
Intro: Riff 1
e|--3--5--3--1--3--3--|--3--5--3--1--------|
B|--------------------|--------------3--3--|

e|--1-----1--5--4--4--|--4--0--4--0--5----|
B|-----3--------------|-------------------|

Riff 2 }x2
       Dm                 Am
e|--------1--0----|--------0--------|
B|----------------|-----------0--1--|
G|-----2----------|-----2-----------|
D|--0-------------|-----------------|
A|----------------|--0--------------|
E|----------------|-----------------|

Verse 1:
Dm        Am
  Открыты все дороги,
Dm         Am
  Размечены пути.
F        G    Am  
  Рвать когти, делать ноги
      F        E
  Нет, лучше полетим.
  
Dm        Am
  Пусть карты не надежны,
Dm        Am
  Не обозначены задачи,
F        G    Am  
  Пред нами мира все надежды,
      F        E
  Все нипочем, и мы не плачем

Chorus:
         Dm             Am
Нананана на на нананана на на
         F                 E
На удачу чу чу на на на на на
         Dm             Am
Нананана на на нананана на на
         F                 E
На удачу чу чу на на на на на

Bridge: Riff 2
       Dm                 Am
e|--------1--0----|--------0--------|
B|----------------|-----------0--1--|
G|-----2----------|-----2-----------|
D|--0-------------|-----------------|
A|----------------|--0--------------|
E|----------------|-----------------|

Verse 2:
Dm        Am
  Все все эти шансы,
Dm        Am
  Все те два из ста.
F        G    Am  
  И те здесь словно иностранцы,
      F        E
  Как будто виза им нужна.

Dm        Am
  Усталый, но счастливый,
Dm        Am
  Мои глаза - смотреть откройтесь!
F        G    Am  
  Бензин остался, еще есть силы,
      F        E
  Будет утро, значит и сочтемся.

Chorus:
         Dm             Am
Нананана на на нананана на на
         F                 E
На удачу чу чу на на на на на

         Dm             Am
Нананана на на нананана на на
         F                 G
На удачу чу чу на на на на на

Solo
 
 

Видео