Мумий Тролль - Роза Люксембург, аккорды

Прокрутка
Тональность
Шрифт
100
Вступление: 
 Dm  A   Gm 
E---------------------------
B---------------------------
G--------------------------- x2 Dm F F-5 F
D-0-0-----------------0-----
A-------0-0----0-1-3--3-1-0-
E--------------3------------

 Dm            A           Gm
Где где где где где пропала где
 Dm           A           Gm
Там там там тарам та там тарам
 Dm        A        Gm
Ле ле ле ле леди леди ле
            Dm         A         Gm
Остались догадки мне ну a тебе рубли
 
       A#
Узнай меня
            G
Открой на стук
      C     Am         Dm 
Моя сказка Роза Люксембург

Dm/E Dm/F Dm/G A Dm Dm/E Dm/F Dm/G A

 Dm            A           Gm
Где где где где где пропала где
 Dm            A          Gm
Там там там тарам та там тарам
 Dm            A          Gm
Ла ла ла лалай ла ла лай ла ла
     Dm            A           Gm
He хочу быть c тобою больше без тебя

Проигрыш: 
 A#         G         C Am   A#          Gm        C  Am
E-6-5-3-3-----5-3----------5-3---5-3---------------------5-6-5-3--3----5-3---5-3-------
B-------6--6-3-------6-3-6------------6-5-6-5-3--3-5-6----------6--6-3-----------6-5-6-
G-----------------------------------------------------5--------------------------------
D--------------------------------------------------------------------------------------
A--------------------------------------------------------------------------------------
E--------------------------------------------------------------------------------------

       A#
Узнай меня
            G
Открой на стук тук-тук-тук-тук-тук
      C     Am         Dm 
Моя сказка Роза Люксембург

Dm/E Dm/F Dm/G A Dm Dm/E Dm/F Dm/G A


Dm A Gm Dm          A         Gm
         Открывай скорее мне на стук...
Dm         A       Gm   Dm Dm/E Dm/F Dm/G A
Po po po po роза Люксембург...
 
 

Видео