Мумий Тролль - Алмазами, аккорды

Прокрутка
Тональность
Шрифт
100
Вступление: 
   G        Bm    F#      G          G      Bm   F# F# 
E------------0-------2-0--0--0------------------0---
B-3--3-2-3--3-2-3----3------3-2-0----0-2-3--3-2-3-2-
G---------------------------------------------------
D---------------------------------------------------
A---------------------------------------------------
E---------------------------------------------------

G       Bm             F#          G         
  Ветер обнимает сзади поднимает юбки
Bm F#           G
     Обнажает танцы
G         Bm           F#       G         
  Ненавидишь вечер если бы на теле
Bm F#              G
    Покрывали звезды

Bm     Em              F#            G
  Алмазами как глазами засверкают вместе
Bm F#               G
    Пыль зима пилоты
Bm        Em               F#            G
   Мы не можем тормозами брать не резать не
Bm       F#       G
  Пролетая повороты

Проигрыш: 
   G        Bm    F#      G          G      Bm  F# F# 
E------------0-------2-0--0--0------------------0---
B-3--3-2-3--3-2-3----3------3-2-0----0-2-3--3-2-3-2-
G---------------------------------------------------
D---------------------------------------------------
A---------------------------------------------------
E---------------------------------------------------

G       Bm             F#       G 
На орбитах тайных где еще не биты
Bm F#           G
Не хватает сварки
G       Bm             F#        G
Мы уходим вместе и проверим пульсы
Bm F#           G
Кольца спрячем в сейфы

G       Bm             F#          G 
Алмазами как глазами засверкают вместе
Bm F#          G
Пыль зима пилоты
G       Bm             F#          G 
Мы не можем тормозами брать не резать не
Bm F#           G
Пролетая повороты

Заключение: G Bm A G Bm A F# | G Bm F# G Bm A F#
            G Bm F# G Bm A F# }x5

   G        Bm    F#     G   Bm           F#        G
E----------------2-0-----0-|-2-0----0------0------2-----2-0-----0------0-------2---------0-2--
B--------------------3-0---|-----3-0---3-0---3-0------------3-0----3-0---3-0--------0-3-----0-
G--------------------------|------------------------------------------------------------------

D------------------|---------------------------------------------|---------------------------------
A------------------|-2-2-2-2-------------------------------------|-2-2---2----2--------------------
E--3-3-3-3-3-3-3-3-|-------2-2-2----2--3-3--3----3---3-3--3----3-|--------2--2---2-2-2-2-2-2-3-3-3-
 
 

Видео