Мумий Тролль - Малек, аккорды

Прокрутка
Тональность
Шрифт
100
Вступление:
    Em    A        Bm     Bm Bsus2 A/f#
E-----------------5-------7-----10---9------5-
B------5------5-------7-------7----7-------5--
G-----4------6-------7---------7----9-------6-
D---5-----------------------------------------
A-----------0---------------------------------
E-0-----------------7-------------------------
    Em    A        Bm
E------------------5-------7-
B--------5------5-------7----
G------4------6-------7------
D----5-----------------------
A------------0---------------
E--0-----------------7-------

      Bm     G         D       Em      Bsus2 F#
Малек, малек, малек колышется, что лепесток.
       Em           D     G
Ты знай, что не одинок, Ма…
      Bm          G     D
За роем проблем, воем сирен 
  Em                  F#         Bm
Еще не тот крен, чтоб закусывать губы.

   Em A
Малек
   Bm  Bm Bsus2 A/f#
Малек
    Em A
Малек
    Bm  
Малек

      Bm     G         D       Em             Bsus2
Малек, малек, малек, ты выжал икру и вышел в игру.
  Em                      F#sus4     F#    Bm
Вояж, понимаешь, вояж - в хвост или в гриву.

   Em A
Малек
   Bm  Bm Bsus2 A/f#
Малек
   Em A
Малек
   Bm Bm Bsus2 A/f#
Малек

      Bm     G         D       Em         Bsus2 F#
Малек, малек, малек, не то, чтобы я так жесток.
       Em                   D   G
Тебе танцевать уже не помешать, Ма…
      Bm                      G      D          Dsus4 D
До каждого "браво", "виват" - есть точка или шпагат.
  Em            F#                      Bm
И если папа пират - плыть нам в бурные воды.

   Em A
Малек
   Bm  Bm Bsus2 A/f#
Малек
   Em A
Малек
   Bm Bm Bsus2 A/f#
Малек

     Bm     G         D       Em     Bsus2 F#
Малек, малек, малек, еще не топтан сапог.
     Em                        D    G
Веревки не вьются, канатики вспять, Ма...
      Bm          G          D                      
Сам жизни докажешь ее сладкий слог.
   Em
Зацапаешь, скрутишь, покажешь урок,
       F#sus4     F#    Bm  Bm/d Bm/c#
И возьмешь ее, как захочешь.

    Em A
Малек
    Bm  Bm/d Bm/c# Bm
Малек
    Em A
Малек
    Bm Bm/d Bm/c# Bm
Малек
    Em A
Малек
    Bm Bm/d Bm/c# Bm
Малек
    Em A
Малек
    Bm 
Малек

Заключение: Bm A - 8p. A Bm - 3p. 
 
 

Видео