Мумий Тролль - Девочка, аккорды

Прокрутка
Тональность
Шрифт
100
Intro: 

C x2
e|-х-----х-х-----х-х-----х-х---х--
B|-1-----1-1-----1-1-----1-1---х--
G|-0-----0-0-----0-0-----0-0---0--
D|-2-----2-2-----2-2-----2-3---2--
A|-3-----3-3-----3-3-----3-х---х--
E|-х-----х-х-----х-х-----х-х---х--
   |   |   |   |   |   |   |   |

(или)

A|-3-----3-3-----3-3-----3-8--7-- x2

Verse 1:
       C                   F/C
  Проснулась ночью девочка, такая неприступная,
  Am                          G
  Чуть капельку рассержена, подушка вся в крови.
       C                   F/C
  Сказала: "Меня предали, без синих глаз оставили,
  Am                         G
  Тарелкой в меня кинули, разбив стакан любви..."

Chorus:
Dm7(V) Em7(VII) Am(V) Am7(V) Am(V) Am7(V)
  Ее   мальчик далеко      в семи морях
Dm7(V)     G      E            Am
  Пьет других девчонок сок, поет им песни.
Dm7(V) Em7(VII) Am Asus2 Am Asus2
  Может быть   все нечестно так,
         G                   F/C           E
  Но только вот, наверно, интересней, интересней...

Проигрыш:
A|-3-----3-3-----3-3-----3-8--7– x2

Verse2:
       C                   F/C
  Ушла, раздевшись, насовсем, сыграла шутку злую ли?
  Am                        G
  Не возвратилась никогда и может умерла.
       C                   F/C
  Глаза закрыла, крикнула, в растрепанные волосы
  Am                               G
  Кинжал воткнув расплавленный, забыла позвонить.

Chorus:
Dm7(V) Em7(VII) Am(V) Am7(V) Am(V) Am7(V)
  Ее   мальчик далеко      в семи морях
Dm7(V)     G      E            Am
  Пьет других девчонок сок, поет им песни.
Dm7(V) Em7(VII) Am Asus2 Am Asus2
  Может быть   все нечестно так,
         G                   F/C           E
  Но только вот, наверно, интересней, интересней...

Colo:
             Am                                G
2|--------- -0-------0-------0-------------- --0------0--------------
3|-------2- -----2-------2-----2------------ ------2-----2----------- x2
4|-----2--- -----------------------2-------- ----------------0-------
5|-0-3----- -------------------------------- ------------------------
   |   |     |   |   |   |   |   |   |   |     |   |   |   |   |   |

                                             -1.--------------------¬
             Am                               G
2|--------- -0---0-------------------------- -0----------------------
3|-------2- ---2---------------------------2 ----2------------------- x2
4|-----2--- -----------------------------2-- ------2-----------------
5|-0-3----- -------------------------0-3---- ------------------------
   |   |     |   |   |   |   |   |   |   |     |   |   |   |   |   |

  -2.-----------
   G                                Dm
2|-0-----------------------1-0---0 -1---
3|---2-------------------------2-- -----
4|-----0-------------------------- -----
5|-------------------------------- -----
   |   |   |   |   |   |   |   |     |

Chorus:
Dm7(V) Em7(VII) Am(V) Am7(V) Am(V) Am7(V)
  Ее   мальчик далеко      в семи морях
Dm7(V)     G      E            Am
  Пьет других девчонок сок, поет им песни.
Dm7(V) Em7(VII) Am Asus2 Am Asus2
  Может быть   все нечестно так,
         G                   F/C           E
  Но только вот, наверно, интересней, интересней,
  C
  Е-е-а-аа.

Комментарий автора:

Asus2 [X02200]
Am7(V) [575555]
Am(V) [57755X]
Am [X02210]
C [X32010]
Dm7(V) [X57565]
Em7(VII)[X57565]
E [022100]
F/С [X3321X]
G [320003]

Альтернативный вариант Соло:
G|-------2--4--2--4--2--4-2 ----4--2--4-2-------- x2
D|-----2------------------------2~------------0~-----
A|-0-2-------------------------------------------

G|-------2--4-2-4~-------2--4-2-------- x2
D|-----2-----------------2----------0~-----
A|-0-2--------------0-2-----------------

G|-------5-4---4-5------
D|------------7----------
A|----------------------
 
 
Свернуть Распечатать

Видео