Мумий Тролль - Забавы, аккорды

Прокрутка
Тональность
Шрифт
100
Intro: Bm }x4 
 
Verse: 
Bm		Bm 
  Мне бы твои пули 
Bm		   Bm 
  Переплавить в струны 
Bm		 Bm 
  Может быть другая песня 
   G	      F#	 
  Получилась бы 
 
Bm	      Bm	 
  Ты б ее послушал 
Bm	      Bm	 
  Девушке поставил 
Bm	      Bm	 
  Может станцевал бы 
   G         F# 
  Толькл все равно 
 
Chorus: 
G          G 
  У тебя забавы 
A A          Em 
  Утром все забыл 
               Em 
  Музыка сорвалась 
F#  F#      Bm 
  Ты меня убил 
 
Bridge: 
   Bm                G      F#  Bm G F# Bm 
B||-1---------|-1-------0-----|-1---------
F#|-----------|-0-------------|-1-------0-
 
Verse:
Bm	      Bm	 
  Так вот за секунду 
Bm	      Bm	 
  Наступает тихо 
Bm	      Bm	 
  Ветер лучше слушай 
  G           F# 
  Он такой крутой 
 
Bm	      Bm	 
  Лязг и визг и время 
Bm	      Bm	 
  Если остановишь 
Bm	      Bm	 
  Ты его потикать 
G             F# 
  Не забудь меня 
 
Chorus: 
G          G 
  У тебя забавы 
A A          Em 
  Утром все забыл 
               Em 
  Музыка сорвалась 
F#  F#      Bm 
  Ты меня убил 
 
Bridge: 
   Bm                G      F#  Bm G F# Bm 
B||-1---------|-1-------0-----|-1---------
F#|-----------|-0-------------|-1-------0-

Solo: 
   Bm	           Bm	           Bm	            Bm	 
D#|-----8----------|----------11----|----------------|
B||---8---------13-|----------------|----------------| 
G||-5--------------|---------8------|----------12----| 

   Bm	          Bm	          G         F# 
B||-------|---------------|-----------------|
F#|-------|-8-------------|-7---------------| 

   Bm	           Bm	      Bm	Bm	 
D#|------------------|-11-------------11-----| 
B||-----13--------13-|-----------------------|
G||-8----------------|----------12-------12--| 

   Bm	           Bm	          G         F# 
B||-------|---------------|-----------------|
F#|-------|-8-------------|-7---------------| 
 
Chorus: 
G          G 
  У тебя забавы 
A A          Em 
  Утром все забыл 
               Em 
  Музыка сорвалась 
F#  F#      Bm 
  Ты меня убил 
 
 

Видео