Мумий Тролль - Медленные танцы, аккорды

Прокрутка
Тональность
Шрифт
100
Вступление:
   Bm             G                Em        F#
e|-10---12-10-9-7---7-9-7---10-9-7---7-9-7---6--7-6-
b|----------------8----------------8----------------
g|--------------------------------------------------
d|--------------------------------------------------
a|--------------------------------------------------
e|--------------------------------------------------

D F# Bm Bm }x2

   D                 F#
Да-да, давай, ага, пора 
Bm               
Пара рира рара
D            F#          Bm   
Знать пора честь, иметь совесть 
D                 F#
Смысл ждать до утра?  
Bm
По одной — и пора 
D                  F#                    Bm
Всегда лучше подслушать свой внутренний голос  

  Bm                  Em7
Давай, давай закажем мне 
F#                   Bm
Медленные, медленные танцы
      Bm                Em7 
Пусть подождет порочный круг
   F#                        F#                              
Мы будем приближаться, приближаться, приближаться 
  Bm                   Em7
Давай, давай сплетем себя 
  F#                  Bm
Шагами лабиринты кружевами
 Bm                  Em7
Медленные, медленные танцы 
    F#
Возьмите меня, возьмите меня 
    F#7
Возьмите меня голыми руками  

Проигрыш:
   Bm              Em7     F# Em7    F# Em7   F#
e|-2-2-0-2-2-2-3-2--0-2-0-----0-2-0-----0-2-0-2-
b|-----------------------3-2-------3-2-------3--
g|----------------------------------------------
d|----------------------------------------------
a|----------------------------------------------
e|----------------------------------------------

       D                F#
Что за палево и что за мура 
Bm
Где мы? Пара рара 
D                  F#                     Bm
Мы как будто все спим, мы как будто не в зоне
     D             F# 
Ни кола нет, ни двора
Bm 
Уходить в номера 
D                 F#                     Bm
Мы как будто прозрели, мы как будто в законе  

  Bm                  Em7
Давай, давай закажем мне 
F#                   Bm
Медленные, медленные танцы
      Bm                Em7 
Пусть подождет порочный круг
   F#                        F#                              
Мы будем приближаться, приближаться, приближаться 
  Bm                   Em7
Давай, давай сплетем себя 
  F#                  Bm
Шагами лабиринты кружевами
 Bm                  Em7
Медленные, медленные танцы 
    F#
Возьмите меня, возьмите меня 
    F#7
Возьмите меня голыми руками

Проигрыш: Bm Bm Em7 F# Em7 F# Em7 F#

   Bm             G                Em        F#
e|-10---12-10-9-7---7-9-7---10-9-7---7-9-7---6--7-6-
b|----------------8----------------8----------------
g|-------------------------------------------------- }x2
d|--------------------------------------------------
a|--------------------------------------------------
e|--------------------------------------------------

D F# Bm Bm }x4

  Bm                  Em7
Давай, давай закажем мне 
F#                   Bm
Медленные, медленные танцы
      Bm                Em7 
Пусть подождет порочный круг
   F#                        F#                              
Мы будем приближаться, приближаться, приближаться 
  Bm                   Em7
Давай, давай сплетем себя 
  F#                  Bm
Шагами лабиринты кружевами
 Bm                  Em7
Медленные, медленные танцы 
    F#
Возьмите меня, возьмите меня 
    F#7
Возьмите меня голыми руками

Проигрыш: Bm }x16

  Bm                  Em7
Давай, давай закажем мне 
F#                   Bm
Медленные, медленные танцы
      Bm                Em7 
Пусть подождет порочный круг
   F#                        F#                              
Мы будем приближаться, приближаться, приближаться 
  Bm                   Em7
Давай, давай сплетем себя 
  F#                  Bm
Шагами лабиринты кружевами
 Bm                  Em7
Медленные, медленные танцы 
    F#
Возьмите меня, возьмите меня 
    F#7
Возьмите меня голыми руками

Заключение:
   Bm       Bm       Bm       Bm
e|--------------------------------------
b|--------------------------------------
g|-------------------------------------- Bm
d|---4-4-2-0--4-4-2-0--4-4-2-0--4-4-2-0-
a|--------------------------------------
e|--------------------------------------
 
 
Свернуть Распечатать

Видео