Мумий Тролль - Северный полюс, аккорды

Прокрутка
Тональность
Шрифт
100
Am             B
На северном полюсе
Dm
Разлиты до соболей,
Am           Em
Раздеты до пояса,
Dm            Em
Затаились отважные. 

F                Am
Раза раза три готов,
E             F
Разорвать твою любовь!

Solo:
e|-----------------------|
B|-----------------------|
G|-------------0---------|
D|----------2-----3-2--2-|
A|-3--2--0---------------|
E|-----------------------|

Am             B
Немножко не выжили,
Dm
Затянулись сигарами,
Am           Em
Я пары усталости
Dm            Em
Меняю в стаю желания.

F                Am
Круги нарезав полярные,
E             F
Одиночки - герои - мы,
F               Am
Взаимно влюбленные
E             F
Подводные лодочки.

Solo 2:
e|-----------------------------------------------|
B|--------------------------------------3--------|
G|-------------0-----------/5--4--2--5----5--4-4-|
D|----------2-----3--2-2-------------------------|
A|-3--2--0---------------------------------------|
E|-----------------------------------------------|

e|------------------------------------------8-10-8-12-10-8-10-|
B|------------------------------5--8-10-10--------------------|
G|----5---5--7-5-/9-7-5-7--5-7--------------------------------|
D|-/7--7------------------------------------------------------|
A|------------------------------------------------------------|
E|------------------------------------------------------------|
 
 

Видео