Мумий Тролль - Владивосток 2000, аккорды

Прокрутка
Тональность
Шрифт
100
Вступление:
1|--------------------------
2|--1---1-1---1--3--1--0--1-
3|--------------------------
4|--------------------------
5|--------------------------
6|--------------------------

Соло:
1|---------------------7--7---------------7--7---------------
2|-----------------8----------8-----------------8------------
3|-------5-----5-----------------7-7-7-7-----------7-7-7-7-7-
4|----7-----7------------------------------------------------
5|-----------------------------------------------------------
6|-----------------------------------------------------------

1|---------------------7--7-------------------------7-
2|-----------------8----------8-----------------------
3|-------5-----5-----------------7-7-7-7---5--4--7----
4|----7-----7-----------------------------------------
5|----------------------------------------------------
6|----------------------------------------------------

Комментарий автора:

Подбор: Maniac
 
 

Видео