Мумий Тролль - Новая луна апреля (btab), аккорды

Прокрутка
Тональность
Шрифт
100
Intro:
   Am                              F
A|-0----------------------------------------------------------------
E|---------------------------------1--------------------------------   
   |   |   |   |   |   |   |   |   |   |   |   |   |   |   |   |   | 
   G                               Am

A|---------------------------------0--------------------------------
E|-3----------------------------------------------------------------
   |   |   |   |   |   |   |   |   |   |   |   |   |   |   |   |   | 

   F               G
E|-1---------------3----------------
   |   |   |   |   |   |   |   |   |
 
Bridge and Verse:
   Am              G              Dm               F  
G|-------------------------------------------------------0---0-----
D|---------------------------------0---0-----0-2-0-3-------3---3-0-
A|-0---0-------0---------------------------------------------------
E|-----------0---0-3---3-----0-3-0---------------------------------
   |   |   |   |   |   |   |   |   |   |   |   |   |   |   |   |   

Chorus:
   Am              F               C               E 
D|---------------------------------------------0---2-----3-2-0-----
A|-0---0-------0-------------------3---3-----3---3-------------3-2-
E|-----------0---0-1---1-----0-1-0---------------------------------
   |   |   |   |   |   |   |   |   |   |   |   |   |   |   |   |   
 
 

Видео