Мумий Тролль - Сигналы, аккорды

Прокрутка
Тональность
Шрифт
100
Intro: E A Bm Bm }x2

       E               A
  Дни гады уходят в такую то даль
    Bm              Bm
  Мне от вчера ничего не жаль и
  E                 A
  Я знаю то что никто не знает
     Bm             F#sus4  F#sus4
  Зачем я живу а с кем не бывает

Solo 1: 
(Guitar)
   Bm                                  F#
B|-----------------|-----------------|-----------------|-----------------|
G|-4---4---4---4---|-4-4-4-6---6-4---|-3---------------|-6-6-6-7---7-6---|
D|-----------------|-----------------|-----------------|-----------------|

(Bass)
   | | | | | | | |   | | | | | | | |   | | | | | | | |   | | | | | | | |
A|-2-----2-2-----2-|-2-----2-2-----2-|-----------------|-----------------| 
E|-----------------|-----------------|-2-----2-2-----2-|-2-----2-2-----2-| 

(Guitar)
   E                                   F#
B|-----------------|-----------------|-----------------|-----------------| 
G|-6---7-6---4-----|-4-4-4-6---6-4---|-3---------------|-3-3-3-4---4-6---| 
D|-----------------|-----------------|-----------------|-----------------| 

(Bass)
   | | | | | | | |   | | | | | | | |   | | | | | | | |   | | | | | | | |
A|-----------------|---------------2-|-----------------|-----------------|
E|-0-----0-0-----0-|-0-----0-0-------|-2-----2-2-----2-|-2-----2-2-----2-|

(Guitar)
   Bm                                  F
B|---------------7-|-5---------------|-----------------|-------------5---| 
G|-7---7---7---7---|---7-6-7---6-4---|-----------------|-6-6-6-7---7-----|
D|-----------------|-----------------|-4---------------|-----------------|

(Bass)
   | | | | | | | |   | | | | | | | |   | | | | | | | |   | | | | | | | |
A|-2-----2-2-----2-|-2-----2-2-----4-|-----------------|-----------------|
E|-----------------|-----------------|-2-----2-2-----2-|-2-----2-2-----2-|

(Guitar)
   E                                   F#
B|-7---8-7---5-----|---------8-7-5---|-----------------|-----------------| 
G|-----------------|-----------------|-6---------------|-----------------| 
D|-----------------|-----------------|-----------------|-----------------| 

(Bass)
   | | | | | | | |   | | | | | | | |   | | | | | | | |   | | | | | | | |
A|-----------------|-----------------|-----------------|-----------------| 
E|-0-----0-0-----0-|-0-----0-0-----0-|-2-----2-2-----2-|-2-----2-2-------| 

Verse:
   Bm              Bm
  День ползет и летит ночь
        A             A
  Не касаясь моей земли
        G      G
  Эхе-хей осторожнее здесь
   F#sus4         F#sus4
  Кем-то забытая тень от луны-хы-хы
  Bm          Bm
  В памяти видишь и лица
  A              A
  Как кадры меняет
     G       G
  Я не навсегда
          F#sus4  F#sus4
  Ну а с кем не бывает

Chorus:
  Bm         D                G            G
  Вали на черные кошки, на черные фишки вали
  Bm    D                      G             G
  На дождь в понедельник когда засвистят журавли
       G                  D
  Отказавших подруг и не давших рубля
        Em                     F#sus4 F#sus4
  Мне опять все придется принимать на себя

Bridge: Bm E }x4

Verse:
  Bm                Bm
  Нервно шаришь носами глазами милая
     A                    A
  Я мусор не вынес там такой мороз
     G               G
  Зато я скучал, не веришь скучал
        F#sus4    F#sus4
  Я пускал в ванне SOS
            Bm          Bm
  И свои губы в международном конверте
    A           A
  В ООН отправляя
          G           G
  Чтоб тебе не досталось
          F#sus4  F#sus4
  Ну а с кем не бывает
 
 

Видео