Мумий Тролль - Где такой я, аккорды

Прокрутка
Тональность
Шрифт
100
Соло во вступлении: 
|--------------------------------|--------------------------------|
|--------------------------------|--------------------------------|
|--------------------------------|--------------------------------|
|--------------------------------|-------------------7/9-12--12---|
|--------------------------------|-------------------7/9-12--12---|
|--------------------------------|--------------------------------|
 
Bm D
 
 E                                Em
|--------------------------------|--------------------------------|
|--------------------------------|----------------------------5/7-|
|--------------------------------|--------------------------------|
|--------------------------------|--------------------------------|
|--------------------------------|--------------------------------|
|--------------------------------|--------------------------------|
 
 D                                G
|--------------------------------|--------------------------------|
|10------------------------------|--------------------------------|
|--------------------9--7---6---|----7----------------------------|
|--------------------------------|--------------------------------|
|--------------------------------|----------------------------7h9-|
|--------------------------------|--------------------------------|
 
 D                                Gm
|--------------------------------|--------------------------------|
|--------------------------------|--------------------------------|
|----------------7---------------|--------------------------------|
|7-------------------------------|--------------------------------|
|----------------------7h9---7---|--------------------------------|
|--------------------------------|--------------------------------|
 
 Bm                               D
|--------------------------------|--------------------------------|
|--------------------------------|------------------7-------------|
|----9---9---7-9---7---9---7-----|----9---9---7-9-------7---------|
|--------------------------------|--------------------------------|
|--------------------------------|--------------------------------|
|--------------------------------|--------------------------------|
 
 E                                Em
|--------------------------------|--------------------------------|
|--------------------------------|--------------------------------|
|--------9-9-7-9---7---9---7-----|--------9---7---9/11--7---------|
|----7/9-------------------------|--------------------------------|
|--------------------------------|--------------------------------|
|--------------------------------|--------------------------------|
 
 D                                G
|----------------------------7---|--------------------------------|
|----------------7---------------|--------------------------------|
|--------------------9---7-------|--------------7-----------------|
|--------------7-----------------|------------------------------7-|
|--------------------------------|--------------------------------|
|--------------------------------|--------------------------------|
 
 D                                Gm
|--------------------------------|--------------------------------|
|------------------------7-------|--------------------------------|
|----7---------------9-------9---|----7---------------------------|
|--------------------------------|--------------------------------|
|--------------------------------|--------------------------------|
|--------------------------------|--------------------------------|
 
 Bm                               D
|--------------------------------|--------------------------------|
|--------------------------------|--------------------------------|
|--------9-9-7-9---7---9---7--/11|--------9-9-7-9---7-------------|
|--------------------------------|----------------------9---------|
|--------------------------------|--------------------------------|
|--------------------------------|--------------------------------|
 
 E                                Em
|--------------------------------|--------------------------------|
|--------------------------------|--------------------------------|
|--------9---7-9---7---9---7--/11|------9-9-9-7-9---7-------------|
|--------------------------------|--------------------------------|
|--------------------------------|--------------------------------|
|--------------------------------|--------------------------------|
 
 D                                G
|--------------------------------|--------------------------------|
|--------------------------------|--------------------------------|
|--------------9/11--9---7---6---|----7-----------------------7---|
|------------7-------------------|------------9-----------7h9-7---|
|--------------------------------|------------------------7h9-----|
|--------------------------------|--------------------------------|
 
 D                                Gm
|--------------------------------|--------------------------------|
|----------------7---------------|--------------------------------|
|------------2/7-----9---7---6---|----7---------------------------|
|--------------------------------|--------------------------------|
|--------------------------------|--------------------------------|
|--------------------------------|--------------------------------|
 
 Bm                               D
|--------------------------------|--------------------------------|
|--------------------------------|--------------------------------|
|----9---9---7-9---7---9---7-----|9---7---9-7---9---7---------7---|
|--------------------------------|----------------------9-------9-|
|--------------------------------|--------------------------------|
|--------------------------------|--------------------------------|
 
 E                                Em
|--------------------------------|--------------------------------|
|-------------------------------/|12------------------------7-8-7-|
|9-9-7---9---7-9---7---9---7-----|----9---9-9-7-9---7---9---------|
|--------------------------------|--------------------------------|
|--------------------------------|--------------------------------|
|--------------------------------|--------------------------------|
 
 D                                G
|--------------------------------|--------------------------------|
|--------------------------------|--------------------------------|
|--------------------9---7--/6---|----7---------------------------|
|--------------------------------|-----------/9------------------|
|--------------------------------|--------------------------------|
|--------------------------------|--------------------------------|
 
 D                                Gm
|---------------------------/9---|----10--------------------------|
|----------------10--------------|--------------------------------|
|----------------11--9-----------|--------------------------------|
|------------------------12------|--------------------------------|
|--------------------------------|--------------------------------|
|--------------------------------|--------------------------------|

  G
Где такой сон, что дольше ночи длится?
 Bm
Нежная сказка, - ну прямо удавиться.
  G
Где такой сон? Не перестать удивляться.
     Bm
За это, наверное, не стыдно стреляться.
    G
И где такой день, куда не лень возвратиться,
       Bm
Чтобы выпить его до конца и свалиться?

     G      D Em
 И где такой я?
   G       D
 Где такой я?
 
Проигрыш: Bm D E Em D G D Gm
 
  G
Где такой я, чтоб познакомиться ближе?
 Bm
Лицом к лицу "Доброе утро" услышать.
  G
Где все это такое, чтобы было не глупо,
 Bm
Чтобы не одеваться, хотя уже утро.
    G
Открывать занавески, взбивать одеяло,
     Bm
Нас не разделяют на много и мало.
 
     G      D Em
 И где такой я?
   G       D
 Где такой я?
 
Проигрыш: Bm D E Em D G D Gm
 
  G
И где ты, такая, что прощает ответы
 Bm
Молчанием на вопросы? А песенка спета.
   G
Невероятно уже, уже невозможно,
 Bm
Назначить свиданье, приобнять осторожно.
    G
Сплошные загадки, ни дня, ни сна, ни терпенья.
   Bm
Ждать я не умею, я в недоумении.
 
   G       D
 Где такой я?
   Em      D
 Где такой я?
   G       D
 Где ты моя?
   Gm
 Где...
 
Проигрыш: Bm D E Em D G D Gm        
 
 

Видео