Мумий Тролль - Ложись, подполковник, аккорды

Прокрутка
Тональность
Шрифт
100
Intro:
       Dbm                             A
1|---|-----------0---------------0-----------------------
2|-1-|-2---2-1-2-----1-2---2-1-2-----------------2------- x2
3|---|-------------------------------1-2---2-1-2-----1-2-
4|---|---------------------------------------------------
5|---|---------------------------------------------------
6|---|---------------------------------------------------

Verse 1:
      Dbm                             A
   Сово-сово-сово-совокупление-е, на пыле-пыле-плечах,
      Dbm                             A
   На бархатных плечах и золотых погонах,
      Dbm                   A
   На свой риск на свой страх,
      Dbm                           A
   Голубки на крышах спальных вагонов.

Bridge: 
Db-5 C5 F#5  Dbm A
1|------------
2|------------
3|-6----5-----
4|-6----5--4--
5|-4----3--4--
6|---------2--

Chorus:
      G#               Dbm F#
   Ложись, подполковник, ложись,
               G#
   Снимай штаны,
      Dbm     A      G#
   Тебя ждет молодость,
      Dbm     A      G#
   Тебя ждет молодость,
   Dbm           F#        G#
   Тебя ждет молодость страны.

Intro:

Verse 2:
      Dbm                 A
   Обняли волосы веером китель,
      Dbm                        A
   Пистоль уперся в молочную грудь,
      Dbm                       A
   Молодость ищет у патрона защиты,
      Dbm                           A
   Мы не проснемся, если им дать уснуть.

Bridge: 
Db-5 C5 F#5  Dbm A
1|------------
2|------------
3|-6----5-----
4|-6----5--4--
5|-4----3--4--
6|---------2--

Chorus:
      G#               Dbm F#
   Ложись, подполковник, ложись,
               G#
   Снимай штаны,
      Dbm     A      G#
   Тебя ждет молодость,
      Dbm     A      G#
   Тебя ждет молодость,
   Dbm           F#        G#
   Тебя ждет молодость страны.

Outro:
       Dbm                             A
1|---|-----------0---------------0-----------------------
2|-1-|-2---2-1-2-----1-2---2-1-2-----------------2------- x2
3|---|-------------------------------1-2---2-1-2-----1-2-
4|---|---------------------------------------------------
5|---|---------------------------------------------------
6|---|---------------------------------------------------
 
 

Видео