Мумий Тролль - На яды, аккорды

Прокрутка
Тональность
Шрифт
100
Intro:
   Dm      A         Gm      Gm        Dm      A         Gm      Gm
e|---5---5---5---5-|---3---3---3---3-|---5---5---5---5-|---3---3---3---3-| 
B|---6---6---5---5-|---3---3---3---3-|---6---6---5---5-|---3---3---3---3-| 
G|---7---7---6---6-|---3---3---3---3-|---7---7---6---6-|---3---3---3---3-| 
D|-----------------|-----------------|-----------------|-----------------|
A|-----------------|-----------------|-----------------|-----------------|
E|-----------------|-----------------|-----------------|-----------------|
   | | | | | | | |   | | | | | | | |   | | | | | | | |   | | | | | | | |
G|-----------------|-----------------|-----------------|-----------------|
D|-----------------|-----------------|-----------------|-----------------|
A|-5-5-5-5---------|-------3-5-3-----|-5-5-5-5---------|-------3-5-3-----| 
E|---------5-5-5-5-|-3-5-6-------6-5-|---------5-5-5-5-|-3-5-6-------6-5-| 

Bridge 1: Dm Dm7 Dm6 Dm

Verse:
   Dm      A         Gm      Gm        Dm      A         Gm      Gm
e|---5---5---5---5-|---3---3---3---3-|---5---5---5---5-|---3---3---3---3-|
B|---6---6---5---5-|---3---3---3---3-|---6---6---5---5-|---3---3---3---3-|
G|---7---7---6---6-|---3---3---3---3-|---7---7---6---6-|---3---3---3---3-|
D|-----------------|-----------------|-----------------|-----------------|
A|-----------------|-----------------|-----------------|-----------------|
E|-----------------|-----------------|-----------------|-----------------|
   | | | | | | | |   | | | | | | | |   | | | | | | | |   | | | | | | | |
G|-----------------|-----------------|-----------------|-----------------|
D|-----------------|-----------------|-----------------|-----------------|
A|-5-5-5-5---------|-------3-5-3-----|-5-5-5-5---------|-------3-5-3-----|
E|---------5-5-5-5-|-3-5-6-------6-5-|---------5-5-5-5-|-3-5-6-------6-5-|

Dm          A        Gm  Gm
Где где где где где пропала где
Dm            A       Gm   Gm
Там там там тарам та там тарам
Dm          A       Gm  Gm
Ле ле ле ле леди леди ле
            Dm       A       Gm Gm
Остались догадки мне ну а тебе рубли

Chorus:
   A#5               A#5                G5               G5
e|-----------------|-----------------|-----------------|-----------------|
B|-----------------|-----------------|-----------------|-----------------|
G|-----------------|-----------------|-----------------|-----------------|
D|-7/8-8-8-7/8-8-8-|-7/8-8-8-7/8-8-8-|-4/5-5-5-4/5-5-5-|-4/5-5-5-4/5-5-5-|
A|-7/8-8-8-7/8-8-8-|-7/8-8-8-7/8-8-8-|-4/5-5-5-4/5-5-5-|-4/5-5-5-4/5-5-5-|
E|-5/6-6-6-5/6-6-6-|-5/6-6-6-5/6-6-6-|-2/3-3-3-2/3-3-3-|-2/3-3-3-2/3-3-3-|
   | | | | | | | |   | | | | | | | |   | | | | | | | |   | | | | | | | |
G|-----------------|-----------------|-----------------|-----------------|
D|-----------------|-----------------|-----------------|-----------------|
A|-----------------|-----------------|-----------------|-----------------|
E|-5/6-6-6-5/6-6-6-|-5/6-6-6-5/6-6-6-|-2/3-3-3-2/3-3-3-|-2/3-3-3-2/3-3-3-|

   C5                A5                Dm
e|-----------------|-----------------|-----------------|-----------------|
B|-----------------|-----------------|-----------------|-----------------|
G|-4/5-5-5-4/5-5-5-|-----------------|---------------2-|-----------------|
D|-4/5-5-5-4/5-5-5-|-6/7-7-7-6/7-7-7-|-----2---3-3-5---|-----------------|
A|-2/3-3-3-2/3-3-3-|-6/7-7-7-6/7-7-7-|-5---------------|-----------------|
E|-----------------|-4/5-5-5-4/5-5-5-|-----------------|-----------------|
   | | | | | | | |   | | | | | | | |   | | | | | | | |   | | | | | | | |
G|-----------------|-----------------|---------------2-|-----------------|
D|-----------------|-----------------|-----2---3-3-5---|-----------------| 
A|-2/3-3-3-2/3-3-3-|-----------------|-5---------------|-----------------| 
E|-----------------|-4/5-5-5-4/5-5-5-|-----------------|-----------------|

       A# A#
  Узнай меня
       Gm     Gm
  Открой на стук
       C      A        Dm Dm
  Моя сказка Роза Люксембург

Verse:
    Dm              A        Gm Gm
  Где где где где где пропала где
   Dm            A           Gm Gm
  Там там там тарам та там тарам
   Dm         Dm             Gm Gm
  Ла ла ла лалай ла ла лай ла ла
           Dm           A       Gm  Gm
  Hе xочу быть с тобою больше без тебя

Chorus

Solo:  A# A# Gm Gm C A A# A# Gm Gm C A

Chorus:
 A#        A#
  Узнай меня
              Gm                  Gm
  Открой на cтук тук-тук-тук-тук-тук
        C      A         Dm Dm
  Моя сказка Роза Люксембург.

Dm A Gm Gm

Bridge 2:
  Dm           A           Gm Gm
  Открывай скорее мне на стук
  Dm           A          Gm Gm
  Ро ро ро ро роза Люксембург

Ending:
   Dm
e|-----------------|-----------------|
B|-----------------|-----------------|
G|---------------2-|-----------------|
D|-----2---3-3-5---|-----------------|
A|-5---------------|-----------------|
E|-----------------|-----------------|
   | | | | | | | |   | | | | | | | |
G|---------------2-|-----------------| 
D|-----2---3-3-5---|-----------------| 
A|-5---------------|-----------------|
E|-----------------|-----------------|
 
 

Видео