Мумий Тролль - Моя певица, аккорды

Прокрутка
Тональность
Шрифт
100
Intro:     
1:--17---------17--15-------------------------------        
2:---------------------15--17--15--17--15--17-18-15-        
3:------14--15--------------------------------------

B          A            Dm
 И всыпал снег не случайно,
     B            A
 Это я заметал следы.
B      A           Dm
 Он такой не сладкий,
Dm
 И совсем не красный,
B              A
 Наверное как ты...
                               
B                Dm                              
 Иней стал на ресницы,                   
B	 A                                   
 Замерзали духи...

Bridge:      
     B            Dm             B               A
1:-------17--15--------------------------17--15---------
2:---------------17--18--17--15------------------18--17-
3:-14--15--------------------------14--15---------------

Bm G Em Em Bm G F# }x2

Проигрыш:    
   Bm     G      Em (Em) Bm     G      F#                                          
2:-7---7--8---7---------7---7--8------7--
3:----9------9----9--------9-----9--7----
4:------9-------9------------9-------9---

       G              Em
 Моя певица умирает назавтра,
         Bm         A        Em
 Ей бы понюхать последних секунд,
       G              Em
 Моя певица умирает назавтра,
 Bm     A       Em
    Но ее не вернуть...

B          A   Dm
 Заманили в афиши,
     B            A
 Пристрелялись и к темноте,
B          A    Dm
 Мы поедем в город,
Dm
 Будет все серьезно,
     B            A
 Ты если сдашься, то мне.
B                Dm  
 Расплатились венками -
B	 A              
 Заплели на букет.

       G              Em
 Моя певица умирает назавтра,
         Bm         A        Em
 Ей бы понюхать последних секунд,
       G              Em
 Моя певица умирает назавтра,
 Bm     A       Em
    Но ее не вернуть.
 
 

Видео