Мумий Тролль - Без обмана, аккорды

Прокрутка
Тональность
Шрифт
100
Bass:
E|-2-4444--2-4444-|

Main Riff:
   G#m   G#m Bm   Bm C#m
G|-4-----4--7-----7--9--------6--6--4^--------------------------
D|-6-----6--9-----9-11----4h6-----------6------4-6--------------
A|-6-----6--9-----9-11---------------------6-6------4^--2-------
E|-4-----4--7-----7--9-------------------------------------2--3-
 
Verse:
 G#m                Bsus2
 Катастрофически западает солнце,
 G#m             Bsus2
 Непристойно хрустит
 Em  Em D#m C#m Bm
 Воздух
 C#sus2   Bsus2
 Между травой
 C#sus2 Bsus2 Em D#m C#m Bm
 И мной
 
Chorus:
 D#m      Bm        C#m
 Между нами, между нами
        Bm
 Между нами
 D#m     Bm     C#m
 Раскопали секреты
   Bm     D#m
 Своими руками
  Bm          C#m   Bm
 Между нами, между нами
 D#m    Bm   C#m
 Все будет, все
 G#m
 Без обмана
 
Main Riff:
   G#m   G#m Bm   Bm C#m
G|-4-----4--7-----7--9--------6--6--4^--------------------------
D|-6-----6--9-----9-11----4h6-----------6------4-6--------------
A|-6-----6--9-----9-11---------------------6-6------4^--2-------
E|-4-----4--7-----7--9-------------------------------------2--3-
 
Verse:
 G#m                Bsus2
 Выпил все-все слова со страха
 G#m         Bsus2
 Головокружение
 Em  Em D#m C#m Bm
 Ставит
 G#m         Bsus2
 Знаки вопросов, 
 C#sus2 Bsus2 Em D#m C#m Bm
 Точки между нами
 
Chorus:
 D#m      Bm        C#m
 Между нами, между нами
        Bm
 Между нами
 D#m     Bm     C#m
 Раскопали секреты
   Bm     D#m
 Своими руками
  Bm          C#m   Bm
 Между нами, между нами
 D#m    Bm   C#m
 Все будет, все
 G#m
 Без обмана
 D#m   Bm C#m
 Все влажно -
 G#m
 Мы в тумане.
 
 

Видео