Мумий Тролль - Плюс 28, аккорды

Прокрутка
Тональность
Шрифт
100
Intro:
Riff1:
             E                  A                  F#m
e|---------------------------------------------------------------------|
B|---------------------------------------------------------------------|
G|---------------------------------------------------------------------|
D|-----2--4--6----6--4h6p4h6----4--6-6--4h6p4h6----4--6-6--4h6-7--6----|
A|--2----------------------------------------------------------------7-|
E|---------------------------------------------------------------------|

Verse1:
E           A         F#m
Когда даже ночью плюс 28
E           A         F#m
Ну что еще скинуть, что снять?
E           A    F#m
Да и некуда бросить.
E           A         F#m
Когда все закипает от одной мне улыбки,
E           A         F#m
А мысли так быстры, как скорость улитки.

Chorus: 
Riff1: x2
             E                  A                  F#m
e|---------------------------------------------------------------------|
B|---------------------------------------------------------------------|
G|---------------------------------------------------------------------|
D|-----2--4--6----6--4h6p4h6----4--6-6--4h6p4h6----4--6-6--4h6-7--6----|
A|--2----------------------------------------------------------------7-|
E|---------------------------------------------------------------------|

E            A
Ты наверное шутишь,
E            A
Шутишь наверное,
E            A
Бросаешь мне плавки в лицо,
E            A
Как будто рвешь себе вены.

Riff 2:                                                       ?
e|------------------------------|---------------------------------
B|------------------------------|------------------4--5--7----7-5-
G|------------------------------|---------------------------------
D|-----2--46--4--4-----4--2--2--|-----2--46--4--4-----------------
A|--0---------------------------|--0------------------------------
E|------------------------------|---------------------------------

              E
----------------|
----------------|
----------------|
----------------|
--0--2--4--2--0-|
----------------|

Ты наверное шутишь,
Или голову мутишь
Мне.

Verse 2:
E           A         F#m
Отлежаться и осмотреться, как упали кометы.
E           A         F#m
Мимо сердца и мимо кармана, и мимо конверта.
E           A         F#m
Как желания издеваются сыпят копейками
E           A         F#m
Прячутся и уползают змейками

Chorus:
Riff1: x2
             E                  A                  F#m
e|---------------------------------------------------------------------|
B|---------------------------------------------------------------------|
G|---------------------------------------------------------------------|
D|-----2--4--6----6--4h6p4h6----4--6-6--4h6p4h6----4--6-6--4h6-7--6----|
A|--2----------------------------------------------------------------7-|
E|---------------------------------------------------------------------|

E            A
Ты наверное шутишь,
E            A
Шутишь наверное,
E            A
Бросаешь мне плавки в лицо,
E            A
Как будто рвешь себе вены.

Riff 2:                                                       ?
e|------------------------------|---------------------------------
B|------------------------------|------------------4--5--7----7-5-
G|------------------------------|---------------------------------
D|-----2--46--4--4-----4--2--2--|-----2--46--4--4-----------------
A|--0---------------------------|--0------------------------------
E|------------------------------|---------------------------------

              E
----------------|
----------------|
----------------|
----------------|
--0--2--4--2--0-|
----------------|

Ты наверное шутишь,
Или голову мутишь
Мне.

E           A         F#m
Сдается стекло здесь ты смотри осторожней
E           A         F#m
Передай своей маме что ее полюбил бы я тоже
E           A         F#m
Ты наверное шутишь в кустах притаившися
    E         E7 A
Добежим до фонтана
  Am/C
Пожалуйста!
    E         E7 A
Добежим до фонтана
  Am/C
Пожалуйста!

Outro: 
Riff1: x4
             E                  A                  F#m
e|---------------------------------------------------------------------|
B|---------------------------------------------------------------------|
G|---------------------------------------------------------------------|
D|-----2--4--6----6--4h6p4h6----4--6-6--4h6p4h6----4--6-6--4h6-7--6----|
A|--2----------------------------------------------------------------7-|
E|---------------------------------------------------------------------|
E A F#m }x4

Комментарий автора:

Там, где стоит ? - написано не верно (в оригинале по-другому), ну не смог я подобрать, но так как написано, вписывается в тему.

Chords used:
    E    A   F#m   E7  Am/C
e|--0----0----2----0----0----|
B|--0----2----2----0----1----|
G|--1----2----2----1----2----|
D|--2----2----4----0----2----|
A|--2----0----4----2----3----|
E|--0----0----2----0----0----|
 
 

Видео