Мумий Тролль - В рейс, аккорды

Прокрутка
Тональность
Шрифт
100
Intro:
D|-11-11-11-11-11-11-11-11-9-9-9-9-9-9-9-9-8-8-8-8-8-8-8-8-
A|---------------------------------------------------------

D|-7-7-7-7-7-7-7-7-----------------------------------------
A|-----------------11-11-11-11-11-11-11-11-9-9-9-9-9-9-9-9-

D|---------------------------------
A|-7-7-7-7-7-7-7-7-5-5-5-5-5-5-5-5-

2|-------5-----------------|           
3|---4-6---4-6-4-----4---6-| x4    |---4-6-|
4|-6-------------6-6---6---|       |-6-----|

C#m   B       F#m
Все осенью летит                       
C#m    E      F#m
Мы знаем наперед                       
C#m    E      А
Укрылся от меня
            C
И в полный голос плачет        
                     Bm
Один твой тот же взгляд        
      A        E                         
Отдай его мне весь 

Припев: 
A(V)           F#m
Мне завтра улетать
           Bm     G(III)
Ну а тебе послезавтра
    C#
В рейс
                 F#m
Все будет как всегда
            E
Только без нас
    Bm  C#
Но здесь 

Проигрыш 2 раза:
   A             E           Hm            C#
E|--------7-9~---10-9-9-7~----------7-9~---7-------|
B|-7-9-10--------------------7-9-10----------10-9~-| 

C#m   B       F#m
Последний наш рассвет
C#m   B       F#m
Заказанный билет почти
C#m   B       A
Мы так друг другу
            C
И не скажем нет, нам и не нужно
                Bm
Мы все пути в начале
      A        E  
Такое если есть 

Припев: 
A(V)           F#m
Мне завтра улетать
           Bm     G(III)
Ну а тебе послезавтра
    C#
В рейс
                 F#m
Все будет как всегда
            E
Только без нас
    Bm  C#
Но здесь 
                 F#m
Все будет как всегда
            E
Только без нас
    Bm  C#
Но здесь
                 F#m
Все будет как всегда
            E
Только без нас
    Bm  C#
Но здесь
 
 

Видео