Мумий Тролль - Глубже, аккорды

Прокрутка
Тональность
Шрифт
100
Intro: (rhythm) Cm Dm(V) Gm Gm }x2

Intro: (solo) x2
e|-------------------------------------------------------------------------------------|
B|--3--5--6-6----5----8--5-----------------6-6--4--------------------------------------|
G|----------------------------5----52/5-----------3-5--7---78-7-7---5-5--3---2---3---5-|
D|-------------------------------------------------------------------------------------|
A|-------------------------------------------------------------------------------------|
E|-------------------------------------------------------------------------------------|

Verse 1:
Bb(VI)                    F
Как ты только мне не улыбаешся
Cm      Dm(V)       Gm (Riff 1)
Светишся так сильно что горишь
Bb(VI)                    F    (Riff 2)
Мучаться придется не стесняюсь я
Cm             Dm(V)       Gm    F
Сказать о том, что сегодня я оставляю тебе Север -
  F                   F
Джунгли были заняты уже

Chorus:
     Cm         Dm(V)         Gm
Уже не больно, и ты довольна, уже получше
       Cm         Dm(V)           Gm   Cm  Dm(V)
Тебе не больно, и ты довольна, а мне б поглубже
   Gm  F
Не скучно

Verse 2:
Bb(VI)                    F
Длинной ночью может фантастичней быть
Cm      Dm(V)       Gm (Riff 1)
Ну больше сновидений или грез
Bb(VI)                    F (Riff 2)
Можно полярным ожить сияньем
Cm             Dm(V)       Gm    F
И прогореть как вышки договоримся так успеем
  F                   F
Ждет королевский праздничный пирог

Chorus:
     Cm         Dm(V)         Gm
Уже не больно, и ты довольна, уже получше
       Cm         Dm(V)           Gm   Cm  Dm(V)
Тебе не больно, и ты довольна, а мне б поглубже
   Gm  F
Не скучно

Solo:
e|-------------------------------------------------------------------------------------|
B|--3--5--6-6----5----8--5-----------------6-6--4--------------------------------------|
G|----------------------------5----52/5-----------3-5--7---78-7-7---5-5--3---2---3---5-|
D|-------------------------------------------------------------------------------------|
A|-------------------------------------------------------------------------------------|
E|-------------------------------------------------------------------------------------|

Chorus:
     Cm         Dm(V)         Gm
Уже не больно, и ты довольна, уже получше
       Cm         Dm(V)           Gm   Cm  Dm(V)
Тебе не больно, и ты довольна, а мне б поглубже
       Cm         Dm(V)           Gm Cm Dm(V)
Уже не больно, и ты довольна, тебе получше
       F Bb
Не скучно

Комментарий автора:

Исполняется на двух гитарах - ритм и соло. Ритм играет все время.

           Riff1                         Riff2
e|-----------------------------|-------3---------5--|
B|------6---4-----3------------|--------------------|
G|--5-----------------5-2---3--|--3-2-------5-4-----|
D|-----------------------------|--------------------|
A|-----------------------------|--------------------|
E|-----------------------------|--------------------|

Не совсем уверен, что Riff2 правильно написан - на записи очень тяжело услышать,
много посторонних звуков. Там еще есть какие-то риффы, но их так в облом подбирать, уж простите.
Ах да, если Bb взападло брать аж на седьмом ладу - берите на первом

Chords used:
  Bb(VI)  F  Cm      Dm(V)   Gm
e|--6----1----3-------5------3----|
B|--6----1----4-------6------3----|
G|--7----2----5-------7------3----|
D|--8----3----5-------7------5----|
A|--8----3----3-------5------5----|
E|--6----1----3-------5------3----|
 
 

Видео