Мумий Тролль - Глубже, аккорды

Прокрутка
Тональность
Шрифт
100
Intro: x2
1|--------------------------------------------------|
2|--5-6-6--5-8-5-------6-6--------------------------|
3|-7------------5---5-5----8-5-7---7-8-7-7-5-5-----5|
4|-------------------7------8-----------------8-7-8-|   
5|--------------------------------------------------|
6|--------------------------------------------------|

Куплет:
 Bb                      F
Как ты только мне не улыбаешься
  Cm           Dm            Gm F
Светишься так сильно, что горишь
 Bb                         F   
Мучаться придется - не стесняюсь я
    Cm                Dm          Gm       Dm  
Сказать о том, что сегодня я оставляю тебе Север
  F
Джунгли были заняты уже 

Припев:
        Eb (Cm)        F             Gm
Уже не больно и ты довольна, уже получше
         Eb (Cm)        F                  Gm
Тебе не больно и ты довольна, а мне б поглубже
Eb (Cm)  F  Gm
       Не скучно.
 
Соло припева:
2|-8-8-8-8-6----|
3|-----------7--| 
4|------------8-|

Куплет:
 Bb                      F
Длинной ночью может фантастичней быть
  Cm           Dm         Gm F
Ну больше сновидений или грез

2)-------6-4-3-1-
3)-0-0-3--------2

 Bb                      F
Можно полярным ожить сиянием
    Cm                Dm          Gm       Dm  
И прогореть, как вышки. Договоримся. Так успеем
  F
Ждет королевский праздничный пирог

Припев:
        Eb (Cm)        F             Gm
Уже не больно и ты довольна, уже получше
         Eb (Cm)        F                  Gm
Тебе не больно и ты довольна, а мне б поглубже
        Eb (Cm)        F             Gm
Уже не больно и ты довольна, уже получше
Eb (Cm)  F  Gm
       Не скучно.
 
Соло припева:
2|-8-8-8-8-6----|
3|-----------7--| 
4|------------8-|
 
 

Видео