Мумий Тролль - Ядерные станции, аккорды

Прокрутка
Тональность
Шрифт
100
Вступление:
e|-----------------------------------------------------------------------|
B|-----------------------------------------------------------------------|
G|-----------------------------------------------------------------------|
D|-----------------------------------------------------------------------|
A|--3-5---5---5---0-3-5---5---5---0-3-5---5---5---0-3-5---5---5---0------|
E|------------------------------------------------------------------3-5--|

e|-----------------------------------------------------------------------|
B|-----------------------------------------------------------------------|
G|-----------------------------------------------------------------------|
D|-----------------------------------------------------------------------|
A|------------------------------------------------------------------3-5--|
E|--------5---5---0-3-5---5---5---0-3-5---5---5---0-3-5---5---5---0------|

Dm                                Am
Ты забыла обратно куда куда возвращаться
Dm                      Am
Мотор клинит, ноги - свинец
Dm                 Am
Пора пора заволноваться
Dm
Ощущая разряды щекотливых оваций
               Am
И как шепот гуляет в запрещенных отсеках наших

e|---------------------|
B|---------------------|
G|---------------------|
D|------0-3-2-0--------|
A|--0-3---------3-1----|
E|---------------------|

Припев:
Bb
Наших ядерных станций     e|---------------------|
Dm                        B|---------------------|
Атом - сердце мутаций     G|---------------------|
G                   A     D|------0-3-2-0--------|
Метаться - не остановить  A|--0-3---------3-1----|
B                         E|---------------------|
Темпы заданных танцев
F               C
Наших ядерных станций:
              B
Только я это знаю как тебя
A
Разобрать на счастье!

Dm Dsus4 Dm Dsus4
Am Asus4 Am Asus4

Dm               Am
Тебе нужно смеяться
Dm                      Am
Возьми все лучшее из шуток
Dm                                Am
Жизнь станет длиннее хотя бы на час
Dm                        Am
И пять ведер незабудок: Все!
Dm           Am
Не нужно пугаться
Dm                                Am
Президентов - маниаков, монстров злых,
Dm                   Am
Ситуация где сами теперь -
Dm               Am
Есть свой чемоданчик,
Dm                       Am
Красная кнопка и золотой ключик!

Припев:
Bb
Наших ядерных станций     e|---------------------|
Dm                        B|---------------------|
Атом - сердце мутаций     G|---------------------|
G                   A     D|------0-3-2-0--------|
Метаться - не остановить  A|--0-3---------3-1----|
B                         E|---------------------|
Темпы заданных танцев
F               C
Наших ядерных станций:
              B
Только я это знаю как тебя
A
Разобрать на счастье!

Dm                                Am
Ты забыла обратно куда куда возвращаться
Dm                   Am
Мотор клинит, ноги - свинец
Dm                  Am
Пора пора заволноваться
Dm                           Am
Ощущая разряды щекотливых оваций
Dm                                Am
И как шепот гуляет в запрещенных отсеках наших

Припев:
Bb
Наших ядерных станций     e|---------------------|
Dm                        B|---------------------|
Атом - сердце мутаций     G|---------------------|
G                   A     D|------0-3-2-0--------|
Метаться - не остановить  A|--0-3---------3-1----|
B                         E|---------------------|
Темпы заданных танцев
F               C
Наших ядерных станций:
              B
Только я это знаю как тебя
A
Разобрать на счастье!
 
 
Свернуть Распечатать

Видео