Мумий Тролль - Инопланетный гость, аккорды

Прокрутка
Тональность
Шрифт
100
Bass: (постоянно)
1------------------------
2------------------------
3------------------------
4-5--5-5--1--1-1--3--3-3-

Am             F
В ночном небе нет комет
G             Am  
Вся планета в мире снов
Am             F
Вдалеке увидел тусклый свет
G             Am  
Это знак из других миров
Am             F
И тревожит меня мысль
G             Am  
Не один среди звезд я живу
Am             F
Видит это будет вечер
G             Am  
Встреча братьев по уму.

Припев: 

Riff в припеве:               (в конце припева)   
3|---------------------------------|-7777-9-
4|7-7-7-7-7-3-3-3-3-3-5-5-5-5-5----|-7777-9-
5|7-7-7-7-7-3-3-3-3-3-5-5-5-5-5----|-5555-7-
6|5-5-5-5-5-1-1-1-1-1-3-3-3-3-3----|--------

Am            F
Инопланетный гость
G           Am
Летит издалека
Am             F
Инопланетный гость
G           Am  
Не знаю я пока
Am             F
Что ты мне принесешь
G             Am  
И сколько бы отдал
Am             F
Чтоб ты бы поскорее
G             Am  
К нам в гости прилетал

Соло 1 : x2 
1------------------------------------
2------------------------------------
3--7-5-4-0-4-5-4-2---7-5-4-0-4-5-7-5-
4-7-----------------7----------------
5------------------------------------
6------------------------------------

Am             F
Контакт быть может, может быть
G             Am  
Бессмертны станем мы
Am             F
И сможем запросто летать
G           Am  
В далекие миры
Am             F
Черный космос бороздя
G             Am  
Кто заглянет в нашу дверь?
Am             F
Ты и сам бы зашел в мир иной
G          Am  
Друг дорогой

Припев: 

Riff в припеве:               (в конце припева)   
3|---------------------------------|-7777-9-
4|7-7-7-7-7-3-3-3-3-3-5-5-5-5-5----|-7777-9-
5|7-7-7-7-7-3-3-3-3-3-5-5-5-5-5----|-5555-7-
6|5-5-5-5-5-1-1-1-1-1-3-3-3-3-3----|--------

Am            F
Инопланетный гость
G           Am
Летит издалека
Am             F
Инопланетный гость
G           Am  
Не знаю я пока
Am             F
Что ты мне принесешь
G             Am  
И сколько бы отдал
Am             F
Чтоб ты бы поскорее
G             Am  
К нам в гости прилетал

Solo 2:                     (с небольшой моей импровизацией)
1------------------------   (а дальше хрен его знает, 
2------------------------    остается импровизировать)
3|--7-9-7----------------
4|-7------10-9-7-579757--
5------------------------
6------------------------

Припев: 

Riff в припеве:               (в конце припева)   
3|---------------------------------|-7777-9-
4|7-7-7-7-7-3-3-3-3-3-5-5-5-5-5----|-7777-9-
5|7-7-7-7-7-3-3-3-3-3-5-5-5-5-5----|-5555-7-
6|5-5-5-5-5-1-1-1-1-1-3-3-3-3-3----|--------

Am            F
Инопланетный гость
G           Am
Летит издалека
Am             F
Инопланетный гость
G           Am  
Не знаю я пока
Am             F
Что ты мне принесешь
G             Am  
И сколько бы отдал
Am             F
Чтоб ты бы поскорее
G             Am  
К нам в гости прилетал

Комментарий автора:

Спасибо, до следующих встреч.
 
 

Видео