Мумий Тролль - Инопланетный гость, аккорды

Прокрутка
Тональность
Шрифт
100
Соло 1 :   (2 раза)
1|-------------------------------------
2|-------------------------------------
3|--7-5-4-0-4-5-4-2---7-5-4-0-4-5-7-5--
4|-7-----------------7-----------------
5|-------------------------------------
6|-------------------------------------
 
Bass  (постоянно)
1|------------------------
2|------------------------
3|------------------------
4|-5--5-5--1--1-1--3--3-3-


Am         F
 В ночном небе нет комет
G         Am
 Вся планета в мире снов
Вдалеке увидел тусклый свет
Это знак из других миров
И тревожет меня мысль
Не один среди звёзв я живу
Видит это будет вечер
Встреча братьев по уму.

Riff в припеве :          (в конце припева)
3|---------------------------------|-7777-9-
4|7-7-7-7-7-3-3-3-3-3-5-5-5-5-5----|-7777-9-
5|7-7-7-7-7-3-3-3-3-3-5-5-5-5-5----|-5555-7-
6|5-5-5-5-5-1-1-1-1-1-3-3-3-3-3----|--------

Припев :

Am        F
 Инопанетный гость
G         Am
 Летит издалека
Инопланетный гость
Не знаю я пока
Что ты мне принесёшь
И сколько бы отдал
Чтоб ты бы поскорее
К нам в гости прилетал

Solo 1


Контакт быть может
Может быть
Бессмертны станем мы
И сможем запросто летать
В далёкие миры
Черный космос бороздя
Кто заглянет в нашу дверь?
Ты и сам бы зашёл в мир иной
Друг дорогой

Припев
 
 

Видео