Мумий Тролль - Не звезда, аккорды

Прокрутка
Тональность
Шрифт
100
Intro:
   Am                Am                Em                Em
B|-----------------|-----------------|-----------------|-----------------|
G|---------------4-|---5-5-5-5-4-----|---------------4-|-----5-5-5-4-----|
D|---------5-7-----|-------------7-7-|-7---5---5-7-----|-------------7-7-|
A|-7-7-7-7---------|-----------------|-----------------|-----------------|
   | | | | | | | |   | | | | | | | |   | | | | | | | |   | | | | | | | |
A|-----------------|-------2-3-2-----|-----------------|-----------------| BА
E|-5-5-5-5-5-5-5-5-|-5-5-5-------5-3-|-0-0-0-0-0-0-0-0-|-0-0-0-0-0-0-0-0-| SS
 
   Am                Am                Em                Em
B|-----------------|-----------------|-----------------|-----------------|
G|---------------4-|---5-5-5-5-4-----|---------------4-|---5-5-5-5-4-----|
D|---------5-7-----|-------------7-7-|-7---5---5-7-----|-------------7-7-|
A|-7-7-7-7---------|-----------------|-----------------|-----------------|
   | | | | | | | |   | | | | | | | |   | | | | | | | |   | | | | | | | |
A|-----------------|-------2-3-2-----|-----------------|-----------------|
E|-5-5-5-5-5-5-5-5-|-5-5-5-------5-3-|-0-0-0-0-0-0-0-0-|-0-0-0-0-0-0-0-0-|
 
   Am                Am                Em                Em
E|-----------------|-----------------|-----------------|-----------------|
G|-5---5-5-5p4-----|-----------------|-7---7p5-7/9-44~|~----------------|
D|-------------7---|-----------------|-----------------|-----------------|
A|---------------7-|-----------------|-----------------|-----------------|
   | | | | | | | |   | | | | | | | |   | | | | | | | |   | | | | | | | |
A|-----------------|-------2-3-2-----|-----------------|-----------------|
E|-5-5-5-5-5-5-5-5-|-5-5-5-------5-3-|-0-0-0-0-0-0-0-0-|-0-0-0-0-0-0-0-0-|
 
   Am                Am                Em                Em
B|-----------------|-----------------|-----------------|-----------------|
G|---------------4-|---5-5-5-5-4-----|---------------4-|-----------------|
D|---------5-7-----|-------------7-7-|-7---5---5-7-----|-----------------|
A|-7-7-7-7---------|-----------------|-----------------|-----------------|
   | | | | | | | |   | | | | | | | |   | | | | | | | |   | | | | | | | |
A|-----------------|-------2-3-2-----|-----------------|-----------------|
E|-5-5-5-5-5-5-5-5-|-5-5-5-------5-3-|-0-0-0-0-0-0-0-0-|-0-0-0-0-0-0-0-0-|
 
Verse:
   G                 G                 G                 G
G|-----------------|-----------------|-----------------|-----------------|
D|---------x-5---5-|---------x-5---5-|---------x-5---5-|---------x-5---5-|
A|-5---5---x-5---5-|-----5---x-5---5-|-----5---x-5---5-|-----5---x-5---5-|
E|-3---3---x-3---3-|-----3---x-3---3-|-----3---x-3---3-|-----3---x-3---3-|
   | | | | | | | |   | | | | | | | |   | | | | | | | |   | | | | | | | |
G|-----------------|-----------------|-----------------|-----------------|
D|-----------------|-----------------|-----------------|-----------------|
A|-----------------|-----------------|-----------------|-----------0-3-0-|
E|-3-3-3-3-3-3-3-3-|-3-3-3-3-3-3-3-3-|-3-3-3-3-3-3-3-3-|-3-3-3-3-3-------|
 
   Dm                Dm                Dm                Dm
B|-----------------|-----------------|-----------------|-----------------|
G|---------x-7---7-|---------x-7---7-|---------x-7---7-|---------x-7---7-|
D|-7---7---x-7---7-|-----7---x-7---7-|-----7---x-7---7-|-----7---x-7---7-|
A|-5---5---x-5---5-|-----5---x-5---5-|-----5---x-5---5-|-----5---x-5---5-|
E|-----------------|-----------------|-----------------|-----------------|
   | | | | | | | |   | | | | | | | |   | | | | | | | |   | | | | | | | |
G|-----------------|-----------------|-----------------|-----------------|
D|-----------------|-----------------|-----------------|-----------------|
A|-5-5-5-5-5-5-5-5-|-5-5-5-5-5-5---3-|-5-5-5-5-5-5-5-5-|-5-5-5-5-5---3---|
E|-----------------|-------------5---|-----------------|-----------5---5-|
 
   F                 F                 F                 F
G|-----------------|-----------------|-----------------|-----------------|
D|---------x-3---3-|---------x-3---3-|---------x-3---3-|---------x-3---3-|
A|-3---3---x-3---3-|-----3---x-3---3-|-----3---x-3---3-|-----3---x-3---3-|
E|-1---1---x-1---1-|-----1---x-1---1-|-----1---x-1---1-|-----1---x-1---1-|
   | | | | | | | |   | | | | | | | |   | | | | | | | |   | | | | | | | |
G|-----------------|-----------------|-----------------|-----------------|
D|-----------------|-----------------|-----------------|-----------------|
A|-----------------|-----------------|-----------------|-----------------|
E|-1-1-1-1-1-1-1-0-|-1-1-1-1-1-1-1-0-|-1-1-1-1-1-1-1-0-|-1-1-1-1-1-1-1-1-|
   |    Fill1    |                     |    Fill1    |     On repeat only
 
   C                 C                 C                 C
E|-----------------|-----------------|-----------------|-----------------|
B|-----------------|-----------------|-----------------|-----------------|
G|---------x-5---5-|---------x-5---5-|---------x-5---5-|---------x-5-5---|
D|-5---5---x-5---5-|-----5---x-5---5-|-----5---x-5---5-|-----5---x-5-5---|
A|-3---3---x-3---3-|-----3---x-3---3-|-----3---x-3---3-|-----3---x-3-3---|
E|-----------------|-----------------|-----------------|-----------------|
   | | | | | | | |   | | | | | | | |   | | | | | | | |   | | | | | | | |
G|-----------------|-----------------|-----------------|-----------------|
D|-----------------|-----------------|-----------------|-----------------|
A|-3-3-3-3-3-3-3---|-3-3-3-3-3-3-3---|-3-3-3-3-3-3-3---|-3-3-3-3-3-3-3-3-|
E|---------------5-|---------------5-|---------------5-|-----------------|
   |    Fill1    |                     |    Fill1    |     On repeat only
 
Fill1
D|-5---5-5-5-3-2---|
A|---------------3-|
E|-----------------|
   | | | | | | | |
 
              G    G  G G
  Вот так влюбился у-ла-ла
         Dm       Dm      Dm   Dm
  В капитаншу космического корабля
           F         F
  Астероид обли облизал бы
                  F            F
  Расстегнул бы твой тугой скафандр
         C            C
  О помигай тихонько мне
            C            C
  Пойдем шататься при луне
            G      G    G  G
  Пойдем шататься-а на луне-е
           Dm           Dm Dm Dm
  И будем метко метки ставить
          F           F            F         F
  И завернем на дискотэку пуская завидует приятель
         C            C
  Но бензин забыл заправить
        C            C
  Я бензин забыл заправить
 
Chorus:
       Am           Am               G           C
  Я тебя забыл поздравить с днем рожденья да-да-да
  G           F         Am Am
  Я теперь сегодня не звезда
 
Verse:
             G   G           G  G
  И с новым годом и майским громом
           Dm   Dm        Dm  Dm
  И бурей лунной и космоштормом
              F        F               F         F
  Такой расстроенный упавший, я милой номер потерявший
          C          C                C           C
  И ты дала заднего хода, а я закрою доступ косморода
               G    G     G G
  Закрою тебе доступ кислорода
               Dm  Dm       Dm Dm
  И всем в турбины по 3 песчинки
         F            F             F         F
  А поцелуй за нос собачку и все твои фотокартинки
        C           C               C              C
  Разлетятся жутко жалить что-то вставить нужно в память
 
Solo: Am Am Em Em }x2
      Bm Bm F# F# }x2
 
Ending:
       Am           Am               G           C
  Я тебя забыл поздравить с днем рожденья да-да-да
  G           F            Am
  Я теперь сегодня не звезда
  G           F    silent
  Значит я сегодня не звезда
 
 

Видео