Запретили песни Цоя, Агата Кристи, Наутилус Помпилиус, Зиверт
Отвечаем в отдельной теме

Natalie Imbruglia - Torn, аккорды

Прокрутка
Тональность
Шрифт
100
Intro 
No Bass

Verse:
...Well you couldn't be that man I adored...
G|--------------------------------------------------|
D|--------------------------------------------------|
A|------------------0-0-0-0-0-0-0-0-1-1-1-1-1-1-1-1-|
E|-5/1-1-1-1-1-1-1-1---------------------------------|

Pre Chorus:
G|--------------------------------|
D|0-0-0-0-------------------------|
A|--------3-3-3-3-0-0-0-0-3-3-3-3-|
E|--------------------------------|

Chorus:
G|----------------------------------------------------------------|
D|----------------0-0-0-0-------------------------0-0-0-0---------|
A|--------3-3-3-3---------1-1-1-1---------3-3-3-3---------1-1-1-1-|
E|1-1-1-1-------------------------1-1-1-1-------------------------|

Verse 

Pre Chorus     
      
Chorus

Bridge:
G|-----5h7------5h7----5h7------5h7---------------------5------5-|
D|--0-0-----0-00----0-0-----0-00-------3-------3-----------------|
A|---------------------------------------------------3-3---3-33--|
E|----------------------------------1-1----1-11------------------|

Pre Chorus (No Bass)

Chorus

Outro:

G|-----------------------------|
D|-11111111--------------------|
A|----------3333333333333333---|
E|-----------------------------|

Chorus to end

Комментарий автора:

Song: Torn
Artist: Natalie Umbruglia
Tabbed by: Tabby Tabby McTabtab
Email: [email protected]
 
 

Видео