Nazareth - This Flight Tonight, аккорды

Прокрутка
Тональность
Шрифт
100
INTRO
|GTR-1--------------------------------------------------------------------|
|-------------------------------------------------------------------------|
|-------------------------------------------------------------------------|
|-------------------------------------------------------------------------|
|----------4---------------4---------------4---------------4-----4--2--4--|
|--2---2-2-2---2-2-2---2-2-2---2-2-2---2-2-2---2-2-2---2-2-2-----2--0--2--|
|PM. . . . . . . . . . . . . . . . . . |
| |
|GTR-2--------------------------------------------------------------------|
|-------------------------------------------------------------------------|
|----------------------------------------------------------------6--4--6--|
|------------------------------------------4--------4--2--4--|
|-------------------------------------------------------------------------|
|-------------------------------------------------------------------------|
 

RIFF A
look out ...
|GTR-1--------------------------------------------------------------------|
|-------------------------------------------------------------------------|
|-------------------------------------------------------------------------|
|-------------------------------------------------------------------------|
|-------------------------------------------------------------------------|
|--2---2-2-2---2-2-2---2-2-2---2-2-2---2-2-2---2-2-2---2-2-2--------------|
|PM. . . . . . . . . . . . . . . . . . . . . . |
| |
|GTR-2--------------------------------------------------------------------|
|-------------------------------------------------------------------------|
|-------------------------------------------------------------------------|
|-------------------------------------------------------------------------|
|-------------------------------------------------------------------------|
|-------------------------------------------------------------------------|


RIFF B
|GTR-1--------------------------------------------------------------------|
|-------------------------------------------------------------------------|
|-------------------------------------------------------------------------|
|-------------------------------------------------------------------------|
|--0-0-2---2-2-2---2-2-2---2-2-2---0-0-2---2-2-2---2-2-2---2-2-2----------|
|-------------------------------------------------------------------------|
|PM. . . . . . . . . . . . . . . . . . . . . . . . |
| |
|GTR-2--------------------------------------------------------------------|
|-------------------------------------------------------------------------|
|-------------------------------------------------------------------------|
|-------------------------------------------------------------------------|
|-------------------------------------------------------------------------|
|-----/7------------------------------/7----------------------------------|



Here's some fills that come later on (they're just for the second guitar).
For this part (and the solo), keep swelling the volume up and down. Pick the
string after you turn it down, and right before you turn it up again.
Remember to shake the hell out of each note as you hold it. In case of a
natural harmonic, use a behind the nut bend to achieve the desired effect.
The more you practice it, the better it will sound. :)

|GTR-1--------------------------------------------------------------------|
|-------------------------------------------------------------------------|
|-------------------------------------------------------------------------|
|-------------------------------------------------------------------------|
|--0-0-2---2-2-2---2-2-2---2-2-2------------------------------------------|
|----------------------------------2-2-2---2-2-2---2-2-2---2-2-2----------|
|PM. . . . . . . . . . . . . . . . . . . . . . . . |
| |
|GTR-2-----------------------------natural-harmonic-----------------------|
|---------------------------------7-------------------------------------|
|-------------------------------------------------------------------------|
|-------------------------------------------------------------------------|
|-------------------------------------------------------------------------|
|-----/7------------------------------------------------------------------|


GTR 1 - RIFF A
|GTR-2--------------------------------------------------------------------|
|-------------------------------------------------------------------------|
|-------------------------------------------------------------------------|
|--4(4)--2--------------|
|-------------------------------------------------------------------------|
|-------------------------------------------------------------------------|


blackness blackness ......
GTR 1 - RIFF B
|GTR-2--------------------------------------------------------------------|
|-------------------------------------------------------------------------|
|-------------------------------------------------------------------------|
|-------------------------------------------------------------------------|
|--6-----------------4----------------|
|-------------------------------------------------------------------------|


GTR 1 - RIFF B
|GTR-2--------------------------------------------------------------------|
|-------------------------------------------------------------------------|
|-------------------------------------------------------------------------|
|---------------------------------------slide-very-slowly-----------------|
|----2-----------------2///////////////////9---------------|
|-------------------------------------------------------------------------|


CHORUS
GTR 1 - RIFF A
|GTR-2--------------------------------------------------------------------|
|-------------------------------------------------------------------------|
|----------------------6--------------------------------------------------|
|--4-------------------4--------------------------------------------------|
|--2-----------------------------------4----------------------------------|
|--------------------------------------2----------------------------------|


GTR 1 - RIFF A
|GTR-2--------------------------------------------------------------------|
|-------------------------------------------------------------------------|
|----------------------------------6--------------------------------------|
|--4-------------------------------4--------------------------------------|
|--2----------------------------------------------------------------------|
|-------------------------------------------------------------------------|

RIFF C
|GTR-1--------------------------------------------------------------------|
|-------------------------------------------------------------------------|
|-------------------------------------------------------------------------|
|-------------------------------------------------------------------------|
|----------------------------------2-2-2---2-2-2---2-2-2---2-2-2--(RIFF A)|
|--0-0-0---0-0-0---0-0-0---0-0-0-----------------------------------2-2-2--|
|PM. . . . . . . . . . . . . . . . . . . . . . . . . . . |
| |
|GTR-2--------------------------------------------------------------------|
|-------------------------------------------------------------------------|
|-------------------------------------------------------------------------|
|--4----------------------------------------------------------------------|
|--2-------------------------------2-------------------------------4------|
|----------------------------------0-------------------------------2------|



SOLO
This is the rhythm for the solo (just like the intro)
|GTR-1--------------------------------------------------------------------|
|-------------------------------------------------------------------------|
|-------------------------------------------------------------------------|
|-------------------------------------------------------------------------|
|----------4---------------4---------------4---------------4--------------|
|--2---2-2-2---2-2-2---2-2-2---2-2-2---2-2-2---2-2-2---2-2-2--------------|
|PM. . . . . . . . . . . . . . . . . . |

I've compressed the solo because it's long and slow
|GTR-2--------------------------------------------------------------------|
|-------------------------------------------------------------------------|
|------------------------------------------------------------6-----|
|---------------4--6-----------/4--(4)/6--------------|
|---------------------------------/4--------------------------------|
|-------------------------------------------------------------------------|

|GTR-2--------------------------------------------------------------------|
|-------------------------------------------------------------------------|
|--/4-6------------------------------------------6------------------|
|--------------4--/6-(6)--------4--------4------------------|
|--------------------------------------4--2--2--4---------------------|
|------------------------------------------------0--2---------------------|


RIFF D
These are the chords I use for this part. It's not really how they play it,
but it's good enough. Try experimenting with it (don't strum all the strings
on each chord - I don't). Make up something for the second guitar, I really
didn't feel like figuring out the funky bass line.

goodbye baby .....
|--2-2---5-5---7-7-7-5---5-5-5-----2-2---5-5---7-7-7-5---5-5-5---2--strum-|
|--2-2---5-5---7-7-7-5---5-5-5-----3-3---6-6---8-8-8-6---6-6-6---2---this-|
|--4-4---7-7---9-9-9-7---7-7-7-----4-4---7-7---9-9-9-7---7-7-7---4---last-|
|--2-2---5-5---7-7-7-5---5-5-5-----2-2---5-5---7-7-7-5---5-5-5---2--chord-|
|--3-3---6-6---8-8-8-6---6-6-6-----4-4---7-7---9-9-9-7---7-7-7---3-slowly-|
|--4-4---7-7---9-9-9-7---7-7-7-----2-2---5-5---7-7-7-5---5-5-5---4--------|
D D D D D U D D U D U D D D D D U D D U D U U


GTR 1 - RIFF B
|GTR-2----------------------|
|---------------------------|
|---------------------------|
|----------------------4----|
|----------------------2----|
|---------------------------|


And now finally, at the very end right after "this flight tonight", the
second guitar finishes off with

...tonight
|GTR-2-----------------|
|-------------7--|
|----------------------|
|----------------------|
|-----4----------------|
|-----2----------------|


And I use this to finish off guitar 1 since it's hard to perform a fade out,
it follows RIFF A at the end.

|GTR-1-------2---|
|------------2---|
|------------3---|
|--------4---4---|
|-----4------4---|
|--2-------------------|
PM. . .
 
 
Свернуть Распечатать

Видео