Nazareth - Love Hurts (btab), аккорды

Прокрутка
Тональность
Шрифт
100
Intro/Refrain:
G----------------
D-------------5--
A----3------3----
E--1---3--1------

Verse/Solo:
A---------7---7--5--3---3--5-3---------7---7--5--3---3--5-3-
E--3-3-3----7---------3---------3-3-3----7---------3--------

Bridge:
D----------2-2---------------------
A------2-2----2-2-3---3-5-3--------
E--3-3--------------3--------3--3-3

Riff 1:
A--7--7-7------7--------7---------7-7-------------------------5--3-
D----------7-7---0--7-7----0--7-7------5--5-5--5-5-5--5--5-5-------
 
 
Свернуть Распечатать

Видео