Немного Нервно - Жена смотрителя маяка, аккорды

Прокрутка
Тональность
Шрифт
100
Вступление и куплеты играются так:  
--------С'-------------C---------------Asus-----------Am--------------
B------3-----3--------1-------1--------3------3--------1------0~1-----
G--------0-----0---------0------0--------2------2--------2----------2-
D----------2-----2---------2------2--------2------2--------2----------
A------3---------------3----------------0---------------0-------------
 
--------С'-----------------C------------------G*-------------------------
E-------0----------------------------------------------------------------
B----------------3--------1---------0--------2------2--------2------2----
G---------0--------0---------0--------0--------0------0--------0-----0---
D-----------2--------2---------2--------2--------0------0--------0-----0-
A----------------3-------------------3------------------------2----------
E-------0-----------------0-------------------3--------------------------
 
Он каждую ночь брал уголёк из её глаз,
Разжигал огонь, и всем было радостно.
И капитаны вели корабли домой,
Припав к подзорной трубе,
И дети от счастья бросались в море,
А киты бросались на берег.

Припев:
----------C-------------G7 --------------Am--------------G*-----------
E--1-0------------------1------1--0-----------------------------------
B--------1-----1----------0------0------1-------1-------3-------3-----
G----------0-----0----------0---------------2-----2---------0-----0---
D------------2-----2--------------------------2-----2---------0-----0-
A--------3--------------------------------0---------------------------
E------------------------3---------------------------------3----------
А жена смотрителя маяка Держит себя
 
------С----------------G'-----------Am--------------G*------
E-----------------------------1-------0---------------------
B----1-----1---0~1--3---------3-----------1-------3---------
G------0-----------------0-----0-------2-------2-------0----
D--------2-----------------0--------------2-------2-------0-
A----3--------------------------------0---------------------
E-----------------------3------------------------------3----
в руках Опускаясь на дно бокала Возвращаясь домой.
 
----------С-------------G7 --------------Am--------------G*-----------
E--1-0------------------1------1--0-----------------------------------
B--------1-----1----------0------0------1-------1-------3-------3-----
G----------0-----0----------0---------------2-----2---------0-----0---
D------------2-----2--------------------------2-----2---------0-----0-
A--------3--------------------------------0---------------------------
E------------------------3---------------------------------3----------
Ах она Каждую ночь одна Так легка и так высо-
 
------С--------------G7 -------------Am------------G*--------
E----0------3--------1------1-------0------------------------
B------1------1--------0------0-------------1-------3--------
G--------0------0--------0------0-----2-------2-------0------
D------------------------------------------2-------2-------0-
A----3--------------------------------0----------------------
E---------------------3--------------------------------3-----
ка Над уровнем моря.

(Проигрыш здесь играется как припев.)

И когда огонь иссяк и исчез,
В глазах её стало темно.
Она сказала: "Мне нечего делать
Здесь". И вышла в окно.
И что с того, что кого-то не стало?
Никто не грустит.
У неё не было планов на старость,
У него нет перспектив.

Комментарий автора:

C'   (032030)
G*  (320033)
G'   (320030)
 
 
Свернуть Распечатать

Видео