Немного Нервно - Миротворец, аккорды

Прокрутка
Тональность
Шрифт
100
Проигрыш и куплеты:
Em
E---3------2-----------------------------------
B--------0-----3-----0-------------------------
G--------------------------------0------0----0- 2 раза
D-----------------------------------2------2---
A---------------------2------------------------
E---0------------------------------------------

C Am Em
E----------------------------------------------------------------------------------------------------
B---3--1--0--1-----------------3--1--0--1-------------------0-----------------------0----------------
G-------------------0----0---------------------0----------0----------0------0--0---------0-----0---0-
D----------------------2---------------------------2---------------------2-----2-------------2-----2-
A---3----------------------------3-------------------------------------------------------------------
E-----------------------------------------------------------0----------------------------0-----------

Затягивается шарф, светящаяся душа
Больше с тебя нечего взять, незачем спешить
Сбитая от вина система координат,
Ты слишком долго прожил на этой вершине.

C Am C Am
И если ты разглядел, и если это игра - 
Em
Выдумай другую,
Где десять тысяч стрел и десять тясяч ран
Стали поцелуями.

Предсказывай или лги, лечи меня от тоски
Пообещай в ноябре, что скоро весна
Только не уходи, кто-то не пьёт один
А я не могу встречать темноту одна.

И если вправду чист, и если ты миротворец -
Создай новый мир,
Где десять тысяч птиц и десять тысяч солнц
стали людьми

Проигрыш(боем): D Dsus2 Dsus D

Затягивается шарф, светящаяся душа
Больше с тебя нечего взять
 
 
Свернуть Распечатать

Видео