Зачем удалили Цоя?
Отвечаем в отдельной теме

Нэнси - Дым сигарет с ментолом, аккорды

Прокрутка
Тональность
Шрифт
100
Вступление:
E-------------------10-8-----------8---
B------------------------11-----11--11-
G--------------------------------------
D----12-10-8---------------------------
A-10-----------------------------------
E--------------------------------------

  Gm           Cm             D7      Gm        F 
E--10-10-10-10-11-8-8-8-8-8-8-6-5-6-8-8-8-8-10---------------------------------------
B----------------------------------------------------------11-11-11-11-11-11-10-8-10-
G------------------------------------------------------------------------------------
D------------------------------------------------------------------------------------
A------------------------------------------------------------------------------------
E------------------------------------------------------------------------------------

 Gm           Cm            D7       D#             5:IIIsl5:V 6:VI
E--10-10-10-10-11-8-8-8-8-8-8-6-5-6-8-8-8-8-10--------------------------------------------
B----------------------------------------------------------11-11-11-11-10-8-10-11-10-8-10-
G-----------------------------------------------------------------------------------------
D-----------------------------------------------------------------------------------------
A-----------------------------------------------------------------------------------------
E-----------------------------------------------------------------------------------------

Gm Cm D7 Gm F | Gm Cm D7 D#

Gm                Cm
Дым сигарет с ментолом
  D7           Gm F
Пьяный угар качает
     Gm     G          Cm Am-5
В глаза ты смотришь другому
   D7             Gm D7
Который тебя ласкает
 Gm   G    Cm D#
А я нашел другую
 F                    A# D7
Хоть не люблю, но целую
      Gm         Cm Am-5
А когда я ее обнимаю
        D7            Gm D7
Все равно о тебе вспоминаю

Gm              Cm
Губы твои как маки
  D7           Gm F
Платье по моде носишь
     Gm     G    Cm Am-5
Себя ты ему раздаришь
   D7              Gm  D
Меня же знать не хочешь
 Gm   G    Cm D#
А я нашел другую
 F                 A# D7
Хоть не люблю, но целую
      Gm        Cm Am-5
А когда я ее обнимаю
        D7            Gm D7
Все равно о тебе вспоминаю

G#m         C#m
Завтра я буду дома
D#7            G#m F#
Завтра я буду пьяный
G#m   G#      C#m A#m-5
Но никогда не забуду
       D#7                G#m D#
Как к щеке прикоснулся губами
 G#m G#    C#m E
А я нашел другую
 F#                  B D#7
Хоть не люблю, но целую
   G#m          C#m A#m-5
А когда я ее обнимаю
        D#7            G#m D#7
Все равно о тебе вспоминаю

 Am             Dm
Лучше меня прости
  E7                 Am G
Брось, и вернись ко мне
         Am        A      Dm Bm-5
Прости за то, что ушел с другой
           E7            Am E7
Прости за то, что ушла и ты
  Am  A      Dm F
А я нашел другую
 G                   C E7
Хоть не люблю, но целую
     Am         Dm Bm-5
А когда я ее обнимаю
        E7              Am E7
Все равно о тебе вспоминаю

Проигрыш: A#m D#m F7 A#m G# | A#m D#m F7 F#
          Bm Em F#7 Bm A | Bm Em

        F#7             G
Все равно я тебя вспоминаю

Проигрыш: Cm Fm G7 Cm A# | Cm Fm

        G7             G#
Все равно я тебя вспоминаю

Заключение: C#m F#m G#7 C#m B | C#m F#m      
 
 
Свернуть Распечатать

Видео