Нервы - Зая, аккорды

Прокрутка
Тональность
Шрифт
100
Вступление и куплет:
3|-----------------------------9--9--9--9--12--12--12--12-
4|-6--6--6--6--8--8--9--9---------------------------------
5|-----------------------------7--7--7--7--10--10--10--10-
6|-4--4--4--4--6--6--7--7---------------------------------

G#m A# B
Без вариантов безысходно безысходности.
E(VII) G
Еще пытаешься бороться с остатками гордости
G#m A# B
Такая чистая и не способная на подлости
E(VII) G
Даже с собой наедине безысходность
G#m A# B
Я не смогу спасти я не хочу, ты столько ко мне приходила
E(VII) G
Лучше бы пошла к врачу ты мне дала стимул
G#m A# B
Но ты проиграла сама
E(VII) G
И я ее воспринял как отличный повод сойти с ума

Припев:
3|-6--6--6--6---------------3--3--3--3---1--1--1--1-
4|-6--6--6--6--6--6--6--6-4--4--4--4---2--2--2--2---
5|-4--4--4--4--6--6--6--6-4--4--4--4---2--2--2--2---
6|---------------4--4--4--4-2--2--2--2--------------

C#m G#m
Я уже не понимаю какая
F# E
Но это не моя, это не моя
C#m G#m
А я ухожу и за собой закрываю
F# E
Пусть горит огнем, это не мое
C#m G#m
Я уже не понимаю какая
F# E
Но это не моя, это не моя зая
C#m G#m
Ухожу и за собой закрываю
F# E
Пусть горит огнем, это не мое, это не мое

G#m A# B
Без вариантов безысходно-безысходности.
E(VII) G
Без вариантов безысходно-безысходности.
G#m A# B
Вся твоя правда - это сломанные лопасти.
E(VII) G
И ты срываешься с обрыва на бешеной скорости.
G#m A# B
Тому, кто не пошлет тебя из вежливости.
E(VII) G
Или тому, кто польстит но простит.
G#m A# B
Я до тебя, до тебя.
E(VII) G
Я до тебя, до тебя.

Припев:
3|-6--6--6--6---------------3--3--3--3---1--1--1--1-
4|-6--6--6--6--6--6--6--6-4--4--4--4---2--2--2--2---
5|-4--4--4--4--6--6--6--6-4--4--4--4---2--2--2--2---
6|---------------4--4--4--4-2--2--2--2--------------

C#m G#m
Я уже не понимаю какая
F# E
Но это не моя, это не моя
C#m G#m
А я ухожу и за собой закрываю
F# E
Пусть горит огнем, это не мое
C#m G#m
Я уже не понимаю какая
F# E
Но это не моя, это не моя зая
C#m G#m
Ухожу и за собой закрываю
F# E
Пусть горит огнем, это не мое, это не мое
 
 

Видео