Нервы - Очень нужен кто-то, аккорды

Прокрутка
Тональность
Шрифт
100
Куплет:
e-----------------
a-7---5---3---3---
d-----------------
g---0---0---0---2-
b-0---0---0---0---
e-----------------

На балконе становится холодно,
Телу не хватает теплого пледа,
Сердцу не хватает поводов,
Сердце не греет прошлое лето.
Осень вгрызается в легкие,
Обжигает больнее никотина,
Почему мы такие далекие?
Мы не многие, мы рутина.

Припев:
e------------------3-------2----
а--3------5---------------------
d--0----------------------------
g----0--0---0---0--0---0--0--0--
b------3-------3------3-------3-
e-------------------------------

Бью ногой в отражение в луже,
Никакой рассыпаюсь по нотам.
Просто нужен кто-то,
Очень нужен кто-то.
Бью ногой в отражение в луже,
Никакой рассыпаюсь по нотам.
Просто нужен кто-то,
Очень нужен кто-то

Куплет:
e-----------------
a-7---5---3---3---
d-----------------
g---0---0---0---2-
b-0---0---0---0---
e-----------------
Ты меня не обидишь холодом,
И не важно кто с чем останется,
Я дышу этим вечным голодом,
Я пишу, и мне это нравится.
Осень вгрызается в легкие,
Обжигает больнее никотина,
Почему мы такие далекие?
Мы не многие, мы рутина.

Припев:
e------------------3-------2----
а--3------5---------------------
d--0----------------------------
g----0--0---0---0--0---0--0--0--
b------3-------3------3-------3-
e-------------------------------

Бью ногой в отражение в луже,
Никакой рассыпаюсь по нотам.
Просто нужен кто-то,
Очень нужен кто-то.
Бью ногой в отражение в луже,
Никакой рассыпаюсь по нотам.
Просто нужен кто-то,
Очень нужен кто-то
 
 

Видео