Нервы - Глупая (бас), аккорды

Прокрутка
Тональность
Шрифт
100
Нижняя струна ставится на до, т.е. на 2 тона ниже обычного.

Вступление:
D -----------------------------
A 1--1--1----------------------
C -----------5--5--5---2--2--2- (2x)

Куплет 1:
D-------------------3-3-3--3-3-3---0-0-0--0-0-0---0-0-0--0-0-0-
A 1-1-1--1-1-1-------------------------------------------------
C -------------------------------------------------------------(2x)

D --------------------------------------------------------------
A 1-1-1--1-1-1--------------------------------------------------
C -------------------5-5-5--5-5-5---2-2-2--2-2-2---2-2-2--2-2-2- (2x)

Припев:
D --------------------------------------------------------------------------
A 1-1-1-1-1-1-1-1-----------------------------------------------------------
C ----------------------5-5-5-5-5-5-5-5---2-2-2-2-2-2-2-2---0-0-0-0-0-0-0-0- (2x)

Куплет 2:
D --------------------------------------------------------------
A 1-1-1--1-1-1--------------------------------------------------
C -------------------5-5-5--5-5-5---2-2-2--2-2-2---2-2-2--2-2-2- (4x)

Припев (2x)

Вариация 1: 
D-------------------3-3-3--3-3-3---0-0-0--0-0-0---0-0-0--0-0-0-
A 1-1-1--1-1-1-------------------------------------------------
C -------------------------------------------------------------

D --------------------------------------------------------------
A 1-1-1--1-1-1--------------------------------------------------
C -------------------5-5-5--5-5-5---2-2-2--2-2-2---2-2-2--2-2-2-

Вступление

Вариация 2:
D ---------------------------------------------------------------------------
A 1-1-1-1-1-1-1-1------------------------------------------------------------
C -----------------------5-5-5-5-5-5-5-5---2-2-2-2-2-2-2-2---2-2-2-2-2-2-2-2-

D -------------------------------------------------------------------------
A 1-1-1-1-1-1-1-1----------------------------------------------------------
C -----------------------5-5-5-5-5-5-5-5---2-2-2-2-2-2-2-2/5-5-5-5-5-5-5-5-

Припев (2x)

Концовка:
D -------------3-3--3-3---0-0--0-0---0-0--0-0-
A 1-1--1-1------------------------------------
C --------------------------------------------

D ---------------------------------
A 1-1--1-1-------------------------
C -------------5-5--5-5---2-2--2-2-
 
 

Видео