Нервы - Этому городу, аккорды

Прокрутка
Тональность
Шрифт
100
Вступление, 1-ый и 2-ой куплеты:
E---------------------------------------------------------------------------------------------------------------------
A------3----------------------------------0-----------------------------------------5---------------------------------
D---------5-------5---------5------5---------5---------5----------5-------5-----------5----------5---------5--------5-
G-------------5-----------------5-------------------5-------------------5----------------------5-------------------5--
B-----------------------0----------------------------------------0------------------------------------------0---------
E---------------------------------------------------------------------------------------------------------------------

А что это за песня
что греет твое сердце
а кто на моем месте
улыбкой на твоем лице
к кому ты убежала
и с кем зима теплее
а ты мне обещала
что я пожалею

C5          E5
никогда, никогда
D5      
я не хотел тебя отдавать
B5
этому городу
C5          E5
никогда, никогда
D5                    B5
я не хотел тебя отдавать

C5          E5
никогда, никогда
D5                                   
я не хотел тебя отдавать
B5
этому городу
C5          E5
никогда, никогда
D5                   B5
я не хотел тебя отдавать

E---------------------------------------------------------------------------------------------------------------------
A------3----------------------------------0-----------------------------------------5---------------------------------
D---------5-------5---------5------5---------5---------5----------5-------5-----------5----------5---------5--------5-
G-------------5-----------------5-------------------5-------------------5----------------------5-------------------5--
B-----------------------0----------------------------------------0------------------------------------------0---------
E---------------------------------------------------------------------------------------------------------------------

ты больше не захочешь
все начинать с начала
а с кем ты пересмотришь
наши сериалы
плачут мои вкладки
я фильмы не качаю
у меня осадки
я по тебе скучаю

C5          E5
никогда, никогда
D5      
я не хотел тебя отдавать
B5
этому городу
C5          E5
никогда, никогда
D5                    B5
я не хотел тебя отдавать

C5          E5
никогда, никогда
D5                                   
я не хотел тебя отдавать
B5
этому городу
C5          E5
никогда, никогда
D5                 B5
я не хотел тебя отдавать

C5 E5 C5 E5 C5 E5

C5          E5
никогда, никогда
D5                                   
я не хотел тебя отдавать
B5
этому городу
C5          E5
никогда, никогда
D5                    E5
я не хотел тебя отдавать

E5
никогда, никогда
E5
никогда, никогда
E5
никогда, никогда
E5
никогда, никогда
E5
никогда, никогда
E5
никогда, никогда

E---------------------------------------------------------------------------------------------------------------------
A------3----------------------------------0-----------------------------------------5---------------------------------
D---------5-------5---------5------5---------5---------5----------5-------5-----------5----------5---------5--------5-
G-------------5-----------------5-------------------5-------------------5----------------------5-------------------5--
B-----------------------0----------------------------------------0------------------------------------------0---------
E---------------------------------------------------------------------------------------------------------------------

а что это за песня,
C5
что греет твое сердце...
 
 
Свернуть Распечатать

Видео