Нервы - Самый дорогой человек, аккорды новинка

Прокрутка
Тональность
Шрифт
100
Начало и в предприпеве (2 раза)
    Em7                     Cadd9                     G                      
----------3---3--3---3-------------3---3--3---3------------3---3--3---3-----------
-----3----3---3--3---3--------3----3---3--3---3-------3----3---3--3---3-----------
-----0----0---0--0---0--------0-----------------------0----0---0--0---0-----------
-----2------------------------2-------------2---------0---------------------------
-------------------2----------3-------------------------------------2-------------
-----0------------------------------------------------3---------------------------
 
     D
-----2----2---2h3p2--(2)-3p2--------------------------------------------------------
-----3----3-----------------------------------------------------------------------
-----2----------------------------------------------------------------------------
-----0----------------------------------------------------------------------------
----------------------------------------------------------------------------------
----------------------------------------------------------------------------------
       Em7             
И пропадает в миллионах навек когда-то
 Cadd9
Самый дорогой человек, правда
  G
Слишком глубокая рана
     D
Забывать друг друга пора нам
    Em7       
Пропадает в миллионах навек когда-то
  Cadd9
Самый дорогой человек, правда
  G
Слишком глубокая рана
     D
Забывать друг друга пора нам
 


Em7
Задержи дыхание на миг
 Cadd9 
Ощути какая глубина
 G                     D
В моей голове идет война
  Em7
Я не принимаю ничего
  Cadd9
Из того, что чувствую сейчас
  G                        D
Проводив тебя в последний раз

(Предприпев:)

Em7             
И пропадает в миллионах навек когда-то
 Cadd9
Самый дорогой человек, правда
  G
Слишком глубокая рана
     D
Забывать друг друга пора нам
    Em7       
Пропадает в миллионах навек когда-то
  Cadd9
Самый дорогой человек, правда
  G
Слишком глубокая рана
     D
Забывать друг друга...


Em7             
И пропадает в миллионах навек когда-то
 Cadd9
Самый дорогой человек, правда
  G
Слишком глубокая рана
     D
Забывать друг друга пора нам
    Em7       
Пропадает в миллионах навек когда-то
  Cadd9
Самый дорогой человек, правда
  G
Слишком глубокая рана
     D
Забывать друг друга пора нам


 Em7
Я слышу твое сердце по ночам
 Cadd9
Тобой пропитан каждый сантиметр
 G                       D
Я нахожу тебя во всех вещах
  Em7
И я тебя никем не заменю
 Cadd9            
Внутри меня как будто гаснет свет
  G                       D
Срываюсь и опять тебе звоню
  Em7
Ты молчишь
 Cadd9
Я больше тебе никто
 G                           D
Ты больше мне ничего не простишь


Em7             
И пропадает в миллионах навек когда-то
 Cadd9
Самый дорогой человек, правда
  G
Слишком глубокая рана
     D
Забывать друг друга пора нам
    Em7       
Пропадает в миллионах навек когда-то
  Cadd9
Самый дорогой человек, правда
  G
Слишком глубокая рана
     D
Забывать друг друга пора нам


 Em7     Cadd9
Я рана! Ты рана!
 G      D
Я рана!
Em7
Я рана!
Cadd9
Ты рана!
G      D
Я рана!
     Em7 
Пропадает в миллионах навек когда-то
 Cadd9
Самый дорогой человек, правда
  G
Слишком глубокая рана
  D
Забывать друг друга…

Комментарий автора:

h и p - это хаммер-он и пул-оф.Аккорды Em7 и Cadd9 играются с прижатыми 1 и 4 струнами
на 3 и 2 ладе соответственно.G c прижатой 2 струной на 3 ладу 
 
 
Свернуть Распечатать

Видео