Nick Jonas - Give Love A Try, аккорды

Прокрутка
Тональность
Шрифт
100
E|-------------------------------------------------------------------------------------------------|
B|-------------------------------------------------------------------------------------------------|
G|------------4-----5------------4-----5-------------4-----4---------------------------------------|
D|-------------------------------------------------------------------------------------------------|
A|-------3----------3-------3-----------3------0-----------0---------------------------------------|
E|-------------------------------------------------------------------------------------------------|

E|-------------------------------------------------------------------------------------------------|
B|-------------------------------------------------------------------------------------------------|
G|-------------5---4---------2-----2^-----------4-----5------------4-----5-------------------------|
D|-------------------------------------------------------------------------------------------------|
A|-------------------------------------------------------------------------------------------------|
E|-------3---------3------1--------1--------3----------3--------3----------3----------------------|

   C
You, you like driving on a Sunday
   Am
You, you like taking off on Monday
  G                               F
You, you're like a dream, a dream come true
I was just a face you never notice
Now I'm just trying to be honest
With myself, with you, with the world

    Am                     G
You might think that I'm a fool
      C7        F
For falling over you
    Am                         G
So tell me what I can Do to prove to you
      C7               F
That it's not so hard to do?
      G               C    
Give love a try, one more time
      G                    C7
'Cause you know that I'm on your side
     F
Give love a try, one more time

How did it play out like a movie?
Now every time you speak it moves me
And I can't get your smile off my mind

And your eyes, when I saw 'em for the first time
Knew that I was gonna love you for a long time
With a love so real, so right

Well, you might think that I'm a fool
For falling over you
So tell me what I can Do to prove to you
That it's not so hard to do?

Give love a try, one more time
'Cause you know that I'm on your side
Give love a try, one more time
One more time
 
 

Видео