Николай Емелин - Сестренка, аккорды

Прокрутка
Тональность
Шрифт
100
Вступление: F#m Bm | F#m E | F#m Bm | F#m E
            A E | Dmaj7 E | A E | Dmaj7 E

Либо табулатура:
   F#m      Bm      F#m    E       F#m   Bm       F#m    E
E|----------------|--------------|---------------|-------0----|
B|--2---2---3-5-3-|--2---2-0---0-|--2---2-3-0----|----2-3-3-2-|
G|--2-4-2-4-4-6-4-|--2-4-2--2-1--|--2-4-2-2--6-4-|-2--2-------|
D|-4--4---4-------|-4--4------2--|-4--4---4--6-4-|-2-4---2----|
A|----------------|--------------|---------------|------------|
E|----------------|--------------|---------------|------------|

   E   A      E        D      E      A       E     D   E
E|------------------------------|-----0---0--------0--------0-|
B|-----2--2h5-3-2------2--------|----2-2-2--0--------0-----0--|
G|-2h4---2-------4-2h4--2-2-----|-2h4--------2-1-2--------1---|
D|------2--------------0-4--2-4-|-----------------4------2----|
A|-----0------------------------|----0------------------2-----|
E|------------0------------0----|-----------0----------0------|

Куплет:
A    E       D       A
Белое облако с неба спустилось −
A         E     F#m          E
В дом наш ночной его ангел послал,
A         E   D       A
Чтобы цветные сны тебе снились,
A       E   Bm7        Bm9 E
И о любви я почаще писал...

Припев:
F#m           Bm    F#m  E
Спи, сестрёнка младшенькая!
F#m        D      A  E
До чего же вечер хорош!
A          E   F#m D
Спи, моя упряменькая,
A           C#      F#m Bm
Не заметишь, как подрастёшь!

A          E   F#m D
Спи, моя упряменькая,
A           C#      F#m 
Не заметишь, как подрастёшь!

Куплет:
A        E  D         A
По небу мчится мечта-колесница,
A         E     F#m          E
К звездам открыта тайная дверь...
A        E D           A
В доме у нас ничего не случится!
A            E  Bm7        Bm9 E
Я − старший брат, ты мне поверь!

Припев:
F#m           Bm    F#m  E
Спи, сестрёнка младшенькая!
F#m        D      A  E
До чего же вечер хорош!
A          E   F#m D
Спи, моя упряменькая,
A           C#      F#m Bm
Не заметишь, как подрастёшь!

A          E   F#m D
Спи, моя упряменькая,
A           C#      F#m 
Не заметишь, как подрастёшь!

Куплет:
A        E D          A
Кто-то устал с дальней дороги,
A         E     F#m       E
А кто-то ещё в начале пути...
A        E D        A
Верь и люби, помни о Боге!
A          E     Bm7          Bm9 E
Каждый пройдёт то, что должен пройти...

Припев:
F#m           Bm    F#m  E
Спи, сестрёнка младшенькая!
F#m        D      A  E
До чего же вечер хорош!
A          E   F#m D
Спи, моя упряменькая,
A           C#      F#m Bm
Не заметишь, как подрастёшь!

A          E   F#m D
Спи, моя упряменькая,
A           C#      F#m 
Не заметишь, как подрастёшь!

F#m           Bm    F#m  E
Спи, сестрёнка младшенькая!
F#m        D      A  E
До чего же вечер хорош!
A          E   F#m D
Спи, моя упряменькая,
A           C#      F#m Bm
Не заметишь, как подрастёшь!

A          E   F#m D
Спи, моя упряменькая,
A           C#      F#m 
Не заметишь, как подрастёшь!

Комментарий автора:

В исполнении Данилы Емелина.
 
 
Свернуть Распечатать

Видео