Nirvana - Aneurysm, аккорды

Прокрутка
Тональность
Шрифт
100
Riff 1: (with Chorus, played 2x) 
E|------------------------------------| 
B|------------------------------------| 
G|--------------5--------4-------2-0--| 
D|-4---4--------5--------4-------2-0--| 
A|-4---4---s3-3-3-3-2-2-2-2-0-0-0-----| 
E|-2---2-0----------------------------| 
 
The run is played from the 3rd fret 
of the G string to the 19th(?). 
 
Riff 1 (w/ distortion, played 8x): 
Verse:
G|--------------------------|----------------------------------| 
D|----Bass plays here-------|-7-7-7-7-7-7-7-7-7-7-7-7-7-7-7-7--| 
A|--------------------------|-7-7-7-7-7-7-7-7-7-7-7-7-7-7-7-7--| 
E|--------------------------|-5-5-5-5-5-5-5-5-5-5-5-5-5-5-5-5--| 
 
Chorus: (w/ distortion, played 4x) 
E|----------------------------------| 
B|----------------------------------| 
G|----------------------------------| 
D|-4-4-6-7---7-7-8-9---9-8-7---7----| 
A|-4-4-6-7---7-7-8-9---9-8-7---7----| 
E|-2-2-4-5---5-5-6-7---7-6-5---5-0--| 

Комментарий автора:

Lyrics:

Come on over, Do the twist 
Overdo it, have a fit 
Love you so much, Makes me sick 
Come on over, Do the twist 
 
Beat me out of me (Beat up, Beat up) x4 
 
Come on over, Do the twist 
Overdo it, have a fit 
Come on over, Shoot the shit 
Come on over, Do the twist 
 
Beat me out of me (Beat up, Beat up) x4 
 
She gave the perfect strain to my heart (xbunch of times) 
 
 

Видео