Nirvana - Lithium, аккорды

Прокрутка
Тональность
Шрифт
100
 Muted guitar:
  E||------------------|--------------------|--------------------| 
  B||------------------|--------------------|--------------------| 
  G||-------------1----|----6----------2----|--------------------| 
  D||----2-------------|--------------------|---------------0--0-| 
  A||------------------|-4------4--0------0-|-3----3--3--3-------| 
  E||-0-----0--4-----4-|--------------------|--------------------| 
 
  E|-------------------|--------------------|--------------------| 
  B|-------------------|--------------------|--------------------| 
  G|-------------------|--------------------|-----6---------2----| 
  D|--------------0--0-|-----2---------6----|-----4---------2----| 
  A|-2---2--2--2-------|-----2---------6----|-4------4--0------0-| 
  E|-------------------|-0------0--4------4-|--------------------| 
 
  E|-------------------|--------------------|--------------------| 
  B|-------------------|--------------------|--------------------| 
  G|-----5-----------7-|------4-----------7-|--------------------| 
  D|-----5-----------7-|------4-----------7-|-----2---------6----| 
  A|-3---3--3--3--5--5-|-2----2--2--2--5--5-|-----2---------6----| 
  E|-------------------|--------------------|-0------0--4------4-| 
 
  E|-------------------|--------------------|--------------------| 
  B|-------------------|--------------------|--------------------| 
  G|----6---------2----|------5-----------7-|------4-----------7-| 
  D|----4---------2----|------5--------0--7-|------4-----------7-| 
  A|-4-----4--0------0-|-3----3--3--3-----5-|-2----2--2--2--5--5-| 
  E|-------------------|--------------------|--------------------| 
 
  E|-------------------|--------------------|--------------------| 
  B|-------------------|--------------------|--------------------| 
  G|-------------------|-----6---------2----|------5-----------7-| 
  D|-----2--------6----|-----4---------2----|------5-----------7-| 
  A|-----2--------6----|-4------4--0------0-|-3----3--3--3--5--5-| 
  E|-0------0--4-----4-|--------------------|--------------------| 
 
  E|-------------------|--------------------|--------------------| 
  B|-------------------|--------------------|--------------------| 
  G|-----4-----------7-|--------------------|-----6---------2----| 
  D|-----4-----------7-|-----2---------6----|-----4---------2----| 
  A|-2---2--2--2--5--5-|-----2---------6----|-4------4--0------0-| 
  E|-------------------|-0------0--4------4-|--------------------| 
 
dist. guitar:
  E|----------------------|----------------------|---------------| 
  B|----------------------|----------------------|---------------| 
  G|-5--5--5--5-5-5--7--7-|-4--4--4--4-4-4--7--7-|---------------| 
  D|-5--5--5--5-5-5--7--7-|-4--4--4--4-4-4--7--7-|-2---2---6---6-| 
  A|-3--3--3--3-3-3--5--5-|-2--2--2--2-2-2--5--5-|-2---2---6---6-| 
  E|----------------------|----------------------|-0---0---4---4-| 
 
  E|---------------|----------------------|----------------------| 
  B|---------------|----------------------|----------------------| 
  G|-6---6---2---2-|-5--5--5--5-5-5--7--7-|-4--4--4--4-4-4--7--7-| 
  D|-6---6---2---2-|-5--5--5--5-5-5--7--7-|-4--4--4--4-4-4--7--7-| 
  A|-4---4---0---0-|-3--3--3--3-3-3--5--5-|-2--2--2--2-2-2--5--5-| 
  E|---------------|----------------------|----------------------| 
 
  E|------------------|------------------|----------------------| 
  B|------------------|------------------|----------------------| 
  G|------------------|-6----6----2----2-|-5--5--5--5-5-5--7--7-| 
  D|-2----2----6----6-|-6----6----2----2-|-5--5--5--5-5-5--7--7-| 
  A|-2----2----6----6-|-4----4----0----0-|-3--3--3--3-3-3--5--5-| 
  E|-0----0----4----4-|------------------|----------------------| 
 
  E|----------------------| 
  B|----------------------| 
  G|-4--4--4--4-4-4--7--7-| 
  D|-4--4--4--4-4-4--7--7-| 
  A|-2--2--2--2-2-2--5--5-| 
  E|----------------------| 
 
Muted guitar:
  E|----------------------|----------------------| 
  B|----------------------|----------------------| 
  G|----------------------|------6----------2----| 
  D|------2----------6----|------4----------2----| 
  A|------2----------6----|-4-------4--0-------0-| 
  E|-0-------0--4-------4-|----------------------| 
 
  E|--------------------|-------------------|--------------------| 
  B|--------------------|-------------------|--------------------| 
  G|------5-----------7-|-----4-----------7-|--------------------| 
  D|------5-----------7-|-----4-----------7-|-----2---------6----| 
  A|-3----3--3--3--5--5-|-2---2--2--2--5--5-|-----2---------6----| 
  E|--------------------|-------------------|-0------0--4------4-| 
 
|------------------------|------------------------| 
|------------------------|------------------------| 
|-------6----------2-----|-------5-----------7----| 
|-------4----------2-----|-------5-----------7----| 
|--4-------4--0-------0--|--3----3--3--3--5--5----| 
|------------------------|------------------------| 
 
------------------------| 
------------------------| 
-------4-----------7----| 
-------4-----------7----| 
--2----2--2--2--5--5----| 
------------------------| 
 
|------------------------|------------------------| 
|------------------------|------------------------| 
|------------------------|-------6----------2-----| 
|-------2----------6-----|-------4----------2-----| 
|-------2----------6-----|--4-------4--0-------0--| 
|--0-------0--4-------4--|------------------------| 
 
------------------------| 
------------------------| 
-------5-----------7----| 
-------5-----------7----| 
--3----3--3--3--5--5----| 
------------------------| 
 
|------------------------|------------------------| 
|------------------------|------------------------| 
|-------4-----------7----|------------------------| 
|-------4-----------7----|-------2----------6-----| 
|--2----2--2--2--5--5----|-------2----------6-----| 
|------------------------|--0-------0--4-------4--| 
 
------------------------| 
------------------------| 
-------6----------2-----| 
-------4----------2-----| 
--4-------4--0-------0--| 
------------------------| 
 
|------------------------|------------------------| 
|------------------------|------------------------| 
|-------5-----------7----|-------4-----------7----| 
|-------5-----------7----|-------4-----------7----| 
|--3----3--3--3--5--5----|--2----2--2--2--5--5----| 
|------------------------|------------------------| 
 
------------------------|------------------------| 
------------------------|------------------------| 
------------------------|-------6----------2-----| 
-------2----------6-----|-------4----------2-----| 
-------2----------6-----|--4-------4--0-------0--| 
--0-------0--4-------4--|------------------------| 
 
dist.:
|--------------------------| 
|--------------------------| 
|--5--5--5--5-5-5--7--7----| 
|--5--5--5--5-5-5--7--7----| 
|--3--3--3--3-3-3--5--5----| 
|--------------------------| 
 
--------------------------| 
--------------------------| 
--4--4--4--4-4-4--7--7----| 
--4--4--4--4-4-4--7--7----| 
--2--2--2--2-2-2--5--5----| 
--------------------------| 
 
|----------------------|----------------------| 
|----------------------|----------------------| 
|----------------------|--6----6----2----2----| 
|--2----2----6----6----|--6----6----2----2----| 
|--2----2----6----6----|--4----4----0----0----| 
|--0----0----4----4----|----------------------| 
 
--------------------------| 
--------------------------| 
--5--5--5--5-5-5--7--7----| 
--5--5--5--5-5-5--7--7----| 
--3--3--3--3-3-3--5--5----| 
--------------------------| 
 
|--------------------------|----------------------| 
|--------------------------|----------------------| 
|--4--4--4--4-4-4--7--7----|----------------------| 
|--4--4--4--4-4-4--7--7----|--2----2----6----6----| 
|--2--2--2--2-2-2--5--5----|--2----2----6----6----| 
|--------------------------|--0----0----4----4----| 
 
----------------------| 
----------------------| 
--6----6----2----2----| 
--6----6----2----2----| 
--4----4----0----0----| 
----------------------| 
 
|--------------------------|--------------------------| 
|--------------------------|--------------------------| 
|--5--5--5--5-5-5--7--7----|--4--4--4--4-4-4--7--7----| 
|--5--5--5--5-5-5--7--7----|--4--4--4--4-4-4--7--7----| 
|--3--3--3--3-3-3--5--5----|--2--2--2--2-2-2--5--5----| 
|--------------------------|--------------------------| 
 
-----------------------| 
-----------------------| 
--2----2--7--5----5----| 
--2----2--7--5----5----| 
--0----0--5--3----3----| 
-----------------------| 
 
|-----------------------|-----------------------| 
|-----------------------|-----------------------| 
|--2----2----0--2----0--|--2----2--7--5----5----| 
|--2----2----0--2----0--|--2----2--7--5----5----| 
|--0----0----x--0----x--|--0----0--5--3----3----| 
|------------3-------3--|-----------------------| 
 
-----------------------| 
-----------------------| 
--2----2----0--2----0--| 
--2----2----0--2----0--| 
--0----0----x--0----x--| 
------------3-------3--| 
 
|-----------------------|-----------------------| 
|-----------------------|-----------------------| 
|--2----2--7--5----5----|--2----2----0--2----0--| 
|--2----2--7--5----5----|--2----2----0--2----0--| 
|--0----0--5--3----3----|--0----0----x--0----x--| 
|-----------------------|------------3-------3--| 
 
-----------------------| 
----------3------------| 
--2----2--2--5----5----| 
--2----2--0--5----5----| 
--0----0-----3----3----| 
-----------------------| 
 
|-----------------------|--------------------------| 
|-----------------------|--3--3--3--3--3--3--3--3--| 
|--2----2----0--2----0--|--2--2--2--2--2-----2--2--| 
|--2----2----0--2----0--|--0--0--0--0--0--0--0--0--| 
|--0----0----x--0----x--|--------------------------| 
|------------3-------3--|--------------------------| 
 
-------------------------|-------------------|| 
-------------------------|-------------------|| 
--4--4--4--4--4-----0----|-------------------|| 
--4--4--4--4--4--2--0----|--2----------------|| 
--2--2--2--2--2--2--x----|--2----------------|| 
-----------------0--3----|--0----------------|| 

Комментарий автора:

Lyrics:
Lithium 
I'm so happy because today 
I've found my friends 
They're in my head 
I'm so ugly, but that's okay, cause so are you 
We've broken our mirrors 
Sunday morning is everyday for all I care 
And I'm not scared 
Light my candles in a daze 
Cause I've found god 
Hey, hey, hey 
I'm so lonely but that's okay I shaved my head 
And I'm not sad 
And just maybe I'm to blame for all I've heard 
But I'm not sure 
I'm so excited, I can't wait to meet you there 
But I don't care 
I'm so horny but that's okay 
My will is good 
Hey, hey, hey 
I like it, I'm not gonna crack 
I miss you, I'm not gonna crack 
I love you, I'm not gonna crack 
I kill you, I'm not gonna crack
 
 

Видео