Nirvana - Plateau, аккорды

Прокрутка
Тональность
Шрифт
100
Main Riff:
E--3-------6-------3-------6-------3-------6-------1-----|
B------------------------------------------------------1-| 
G----------------------------------------------------0---| 
D-----(0)-----(0)-----(0)-----(0)-----(0)-----(0)--------| 
A---(2)-----(5)-----(2)-----(5)-----(2)-----(5)----------| 
E--3-------6-------3-------6-------3-------6-------1-----| 
 
Pre-Chorus:            
E--4-----|         
B------4-|         
G----0---|         
D--------|         
A--------|         
E--4-----|         

Chorus:
e|--1/3------------------------3-------| 
B|--1/3-------------3-----3----3-----6-| 
G|------------------3-----3----------7-| 
D|---------5--x-----3-----3----------8-| 
A|---------5--x--1-----------5---------| 
E|-------3-------------1-----3---/6----| 

Pre-Outro:
E--4----------------4---6-----------------6-|
B---------4-------4------------6--------6---| 
G-------------------------------------------| 
D------0-------0------------0-------0-------| 
A----3-------3------------5-------5---------| 
E--4--------------------6-------------------| 
 
Outro:
E|-(0)--------------------------0-----| 
B|--------------0-------2---------1p0-| 
G|------2-----2---2---2-------2-------|
D|----2-----2-------0-------0---------|
A|--0-----0---------------3-----------|
E|------------------------------------|
 
E|--------------------------------------------| 
B|--------2----------0-----------0--------1p0-| 
G|-----2----------2-----2-----2---------2-----| 
D|--2----------2-----------3----------0-------| 
A|----------0----------------------3----------| 
E|--------------------------------------------|

Комментарий автора:

G     - 320x33 
Bb    - 650x66 
Fsus2 - 1xx011 
G#    - 4xx044 
 
 

Видео