Nirvana - Smells Like Teen Spirit, аккорды

Прокрутка
Тональность
Шрифт
100
Вступление: Em ↓↑↓↑↓↑ Am ↓↓ C ↓↑↓↑↓↑ G ↓↓ |x 4

Куплеты:
1|-----------------0----------------0------------------------------------------------------------|                         
2|------0-4------------------------------3-1-0---------1-0-----------------------0---------------|  
3|--------------------0----------0----------------------------------2-0-----------------2-0------| x2
4|---------------------------------------------------------------------------------------------4-|    
5|-----------0-0-----------------------3-3--------------------0-0--------------------3-3---------|  
6|--0-0--------------------3-3---------------------0-0--------------------3-3--------------------|  

1|-------------------------------------------------------------|                          
2|-------------------------------------------------------------|
3|-------0----------0-----------------------0--------------0---| x4
4|----------4-----------4------------------------4---2-------4-|
5|-------------0-0-----------------------3-3-------------------| 
6|--0-0--------------------3-3----------------------0-0--------|

Комментарий автора:

Все 3 куплета идентичны (одинаковые). 5-6 струны играеться с опорой, 
1-4 струны шепком
 
 
Свернуть Распечатать

Видео