Nirvana - All Apologies, аккорды

Прокрутка
Тональность
Шрифт
100
Verse riff:
Eb----------------------|----------------------|----------------------|
Bb----------------------|----------------------|----------------------|
Gb----------------------|----------------------|----------------------|
Db----------------------|----------12-12-9-10--|----------------------|
Ab---9-10-9-12-12-9-10--|---9-10-9-------------|---9-10-9-12-12-9-10--|
Db-0--------------------|-0--------------------|-0--------------------|

Eb---------------------|
Bb---------------------|
Gb----------11-11-9----|
Db------------------12-|
Ab---9-10-9------------|
Db-0-------------------|

What else should I be
All apologies
What else should I say
Everyone is gay
What else could I write
I don´t have the right
What else should I be
All apologies

Chorus:
Eb----------------------------------------|
Bb----------------------------------------|
Gb----------------------------------------|
Db-5-5-5--0-5-5-5--0-5-5-5--0-5-5-5--0--7-|
Ab-5-5-5--0-5-5-5--0-5-5-5--0-5-5-5--0--7-|
Db-5-5-5--0-5-5-5--0-5-5-5--0-5-5-5--0--7-|

In the sun
In the sun I feed as one
In the sun
In the sun
married
buried

Verse 2:

Eb----------------------|----------------------|----------------------|
Bb----------------------|----------------------|----------------------|
Gb----------------------|----------------------|----------------------|
Db----------------------|----------12-12-10-9--|----------------------|
Ab---9-10-9-12-12-9-10--|---9-10-9-------------|---9-10-9-12-12-9-10--|
Db-0--------------------|-0--------------------|-0--------------------|

Eb---------------------|
Bb---------------------|
Gb----------11-11-9----|
Db------------------12-|
Ab---9-10-9------------|
Db-0-------------------|

I wish I was like you
Easily amused
Find my nest of salt
Everything is my fault
I´ll take all the blame
Aqua seaform shame
Sunburn with freezeburn
Choking on the ashes of her enemy

Ending:
All alone as all we are.
 
 

Видео