Nirvana - Oh Me, аккорды

Прокрутка
Тональность
Шрифт
100
Main Riff:
 (NC)     E      (NC)   D    (NC)   D            C         E 
E-------------0-|-------------|-----------------|----0-------0-| 
B-------------0-|-----------3-|-----------3-----|----1-0-0---0-| 
G-------------1-|-----------2-|-----------2-0-0-|----0-0-0---1-| 
D-------2-2-2---|-----2-0-0-0-|-----2-0-0-0-0-0-|2-2-------2---| 
A---0-2---2-2---|-0-2---0-0---|-0-2---0-0-------|3-3-------2---| 
E-4-------------|4------------|4----------------|----------0---| 
 
Припев: x4            End Of Припев: 
G         E             C          D         E 
E-3--3-3-3-----0-|    |------------0-----|---------------0-| 
B-0--0-0-0-----0-|    |------------1-----|-----3---------0-| 
G-0--0-0-0-----1-|    |--------0-0-0-0-0-|-2-2-2-2-2-----1-| 
D-----------2-2--|    |------2-2-2---2-2-|-0-0-0-2-2-0-0---| 
A-----------2-2--|    |--0-2---3-3---3-3-|-0-0---0-0-0-0---| 
E-----------0-0--|    |-4----------------|-----------------| 
 
Solo: 
|---------------------3/2----------2/5-5-5-3-2-----------------| 
|---------------3-3^5~----5-(3-5)-5------------5/3---------3-5~| 
|-----------2-4~-----------------------------------4-2-2/4-----| 
|-----2-2Н4----------------------------------------------------| 
|--0-2---------------------------------------------------------| 
|-4------------------------------------------------------------| 
 
Outro: C5 D5 E5        

Комментарий автора:

Lyrics:

If I had to lose a mile 
If I had to touch feelings 
I would lose my soul 
The way I do 
 
I don't have to think 
I only have to do it 
The results are always perfect 
And that's old news 
 
Would you like to hear my voice 
Sweetened with emotion 
Invented at your birth? 
 
I can't see the end of me 
My whole expanse I cannot see 
I formulate infinity 
And store it deep inside of me 
 
 

Видео