Nirvana - Heart-Shaped Box, аккорды

Прокрутка
Тональность
Шрифт
100
Drop D Tuning

Intro/Verse:
3:-----2-------------------------------2-----------
4:---2---2------3---------0----0---2-2---2-----3---
5:-0----------3---3-----0----0---0-0---------3---3-
6:-----------3--------0--------------------3-------

4:---3/4-4-4-4-----0-
5:-------------3-3---
6:-0-----------------

Chorus:
2:-----------------------------
3:-2-2-4------4--------------4-
4:-2-2----3-3---0-0-0-0-0-0---- x3
5:-0-0----3-3---0-0-0-0-0-0----
6:--------3-3---0-0-0-0-0-0----

3--------------------3-
4:-3-3-3-3-3-3-3-3-0---
5:-3-3-3-3-3-3-3-3-0---
6:-3-3-3-3-3-3-3-3-0---

Solo:
2:------------------------------
3:---8-(8)---6-(6)---5--3-------
4:-7-------5-------3------5-4-2-

Комментарий автора:

Это настоящие аккорды песни (прямо как играл сам Курт)
___________________
Lyrics:
She eyes me like a pisces when I am weak 
I´ve been locked inside your heart-shaped box for weeks 
I was drawn into your magnet tar pit trap 
I wish I could eat your cancer when you turn back
Hey 
Wait 
I´ve got a new conplaint 
Forever in debt to your priceless advice 
Hate 
Haight 
I´ve got a new complaint 
Forever in debt to your priceless advice 
Hey 
Wait 
I´ve got a new complaint 
Forever in debt to your priceless advice
Meat-eating orchids forgive no one just yet 
Cut myself on angel´s hair and baby´s breath 
Broken hymen of your highness I´m left black 
Throw down your umbilical noose 
so I can climb right back

Шкатулка в форме сердца

Когда я теряю силы, она смотрит на меня во все глаза как на рыбу.
Долгие дни - недели я был пленником твоей шкатулки в форме сердца.
Меня засосала твоя манящая яма, полная дегтя.
Я хотел бы съесть твою раковую опухоль, когда ты злишься.

Эй, подожди,
У меня есть еще одна жалоба -
Я перед тобой в вечном долгу за данный тобой бесценный совет.
Твой бесценный совет.

Орхидеи, пожирающие мясо еще никого не простили.
Расчленяю себя волосом ангела и дыханием ребенка.
Порвана плева вашего высочества, оставив меня во мраке. 
Сбрось мне вниз петлю из пуповины, чтобы я по ней вскарабкался обратно.
 
 

Видео