Nirvana - The Man Who Sold The World (btab), аккорды

Прокрутка
Тональность
Шрифт
100
Intro:
G|-----------|-------------|----------------------|---------------------|
D|-----------|---4---------|--2--2--2-----------2-|-2--2--2-----2--1--0-|
A|-----------|-------------|-----------2--2--2----|----------2----------|
E|-----------|-------------|----------------------|---------------------|

                          Verses:
|----------|------------|-------------------|--------------------------|
|----------|------------|-----------6-------|--------------------------|
|--4-------|-----6------|--------6-----6--6-|--------------------------|
|----------|------------|--4--4-------------|--4----4--4--3--4--6------|

|-----------------------|---------------------|------------------------|
|--------6---------6----|-------------4--2----|----6-------------------|
|-4---4---------4-----4-|-4--4--4--4--------6-|-------6----------------|
|-----------------------|---------------------|-4-------------4--4--4--|

|---------------------|--------4-----------|---------------------------|
|----------------4--3-|-2---2------2--2--2-|--2--2--2----4--2----------|
|---------------------|--------------------|-------------------4-------|
|-4----4--4---4-------|--------------------|---------------------------|

|----------------------|----------------------|------------------------|
|----------4-----------|----------------------|------------------------|
|-2----2-------2-----2-|--2---2--2----4--2----|----6------------6------|
|-----------------4----|--------------------4-|-4-----4------4-----4---|

|-------------|---------------------|----------------------------------|
|-------------|----------6--------6-|-----------6----------------------|
|----------6--|--4----4-------4-----|--4----4-----------4--4--4--------|
|--4---4------|---------------------|----------------------------------|

Chorus:
|----------------1--2--4-|----------------1--2--4-|----------------1--2--4|
|-------1--2--4----------|-------1--2--4----------|-------1--2--4---------|
|-2--4-------------------|-2--4-------------------|-2--4------------------|
|------------------------|------------------------|-----------------------|

|------------------------|-------------|-------------------------------|
|-------------------1--2-|-------2-----|-------------------1--2--------|
|----------0--2--4-------|-3--3-----3--|----------0--2--4--------------|
|-0--2--4----------------|-------------|-0--2--4-----------------------|

|-----------------1--2--4-|------------------------|-------------------|
|--------1--2--4----------|-------------------1--2-|---------2---------|
|--2--4-------------------|----------0--2-4--------|-3----3-----3------|
|-------------------------|-0--2--4----------------|-------------------|

|---------------|-------------------|-----------------|----------------|
|----6----------|-------------------|------6----------|----------------|
|---------------|-------------------|-----------------|----------------|
|---------------|-------------------|-----------------|----------------|

              Who  knows...
|--6-------6--6----|-----------------1--2--4-|-------------------------|
|------6-----------|--------1--2--4----------|-------------------1--2--|
|----------------4-|--2--4-------------------|----------0--2--4--------|
|------------------|-------------------------|-0--2--4-----------------|

|-----------------|----------------1--2--4-|---------------------------|
|---------2-------|-------1--2--4----------|-------------------1--2----|
|-3----3-------3--|-2--4-------------------|----------0--2-4-----------|
|-----------------|------------------------|-0--2--4-------------------|

|-----------------|-------------|-----------|-----6----|-----6--6------|
|----------2------|-6-----------|-----------|----------|--6------------|
|-3-----3-------3-|-------------|-----------|----------|------------6--|
|-----------------|-------------|-----------|----------|---------------|

||----------------------|-----------------------|----------------------|
||o--2-----2----------1-|-2-----2-------2--1--0-|----------------------|
||o-----2-----2----2----|----2-----2------------|-4--4--4-----------3--|
||----------------------|-----------------------|----------4---4-------|

|------------------------|-----------------------|----------1----------|
|------------------------|----------1------------|---------------------|
|--4--4--4-------4--3--1-|-----------------------|----------------1--3-|
|------------4-----------|-4--4--4-------4--4--4-|-4--4--4-----4-------|

                        1.2.                       3.
|---------------------|----------------------||------------------------|
|---------------------|-------------------1-o||----------------------1-|
|-4--4--4-----------3-|--4--4--4-------4----o||-4--4--4-----------4----|
|----------4----4-----|-------------4--------||----------4--4--4-------|

|---------------|--------------|
|---2-----------|--------------|
|---------------|--------------|
|---------------|--------------|
 
 

Видео