Nirvana - Smells like a teen spirit (фингерстайл), аккорды новинка

Прокрутка
Тональность
Шрифт
100
Интро:
Em  Am  G  C x4
Бридж:
e|-------0-----------------------------------0-------------------------------|
B|-----0-----------------------------------0---------------------------------|
G|---------------------------------------------------------------------------|
D|---------------------------------------------------------------------------|
A|-----------0-0-0-0-------3-3-3-3--------------0-0-0-0--------3-3-3-3-------|
E|-0-0--------------3-3-3-3------------0-0--------------3-3-3-3--------------|

Куплет 1:
e|------------0---------------0------------------------------------------------------|
B|-----0-3------------------------3-1-0----------0-1-0-----------------0-------------|
G|-----------------0-------0------------------------------2---0------0-------2--0----|
D|--------------2--------0-----------------------------------2------0------------2--4|
A|---------0---------------------------------2---------0------------------3----------|
E|-0-0----------------3-------------------0----------------------3-------------------|

e|------------0---------------0------------------------------------------------------|
B|-----0-3------------------------3-1-0----------0-1-0-----------------0-------------|
G|-----------------0-------0------------------------------2---0------0-------2--0----|
D|--------------2--------0-----------------------------------2------0------------2--4|
A|---------0---------------------------------2---------0------------------3----------|
E|-0-0----------------3-------------------0----------------------3-------------------|

e|--------0-------------0--------------0-------------0------|
B|-0-------------0--------------0--------------0------------|
G|--------0-------------0--------------0----------0---------|
D|-----------4-------------4---------------4---------4--2---|
A|---------------0--0--------------------------3------------|
E|-0--0-------------------------3--3------------------------|

e|--------0-------------0--------------0-------------0------|
B|-0-------------0--------------0--------------0------------|
G|--------0-------------0--------------0----------0---------|
D|-----------4-------------4---------------4---------4--2---|
A|---------------0--0--------------------------3------------|
E|-0--0-------------------------3--3------------------------|

e|--------0-------------0--------------0----------|
B|-0-------------0--------------0--------------0--|
G|--------0-------------0--------------0----------|
D|-----------4-------------4---------------4------|
A|---------------0--0--------------------------3--|
E|-0--0-------------------------3--3--------------|

Припев
Em  Am  G  C 

Комментарий автора:

Желательно играть с капой на 1 ладу.

Если надо будет дальше - пишите
 
 
Свернуть Распечатать

Видео