Nirvana - Come As You Are, аккорды новинка

Прокрутка
Тональность
Шрифт
100
Intro:
A|----------------------------------
E|----------------------------------
B|----------0---0---------2-------2-
F#|--0-0-1-2---2---2-2-1-0----0-0----

Verse:
A|----------------------------------
E|----------------------------------
B|----------0---0---------2-------2-
F#|--0-0-1-2---2---2-2-1-0----0-0----
 
(Либо играем куплет аккордами)
(припев играется аккордами)

F#m           E            F#m
Come as you are, as you were
      E           F#m
As I want you to be
        E         F#m
As a friend, as a friend
      E       F#m
As an old enemy
           E         F#m
Take your time, hurry up
           E          F#m
Choice is yours don't be late
         E         F#m
Take a rest, as a friend
      E       F#m    A
As an old Memoriiiiiaaaa
F#m    A
Memoriiiiiaaaa x3 

F#m             E            F#m
Come dowsed in mud, soaked in bleach
      E       F#m
As I want you to be
       E         F#m
As a trend, as a friend
      E       F#m    A
As an old Memoriiiiiaaaa
F#m    A
Memoriiiiiaaaa x3 


Bsus2   D           Bsus2         D
And I swear that I don't have a gun
 Bsus2         D
No I don't have a gun
Bsus2         D
No I don't have a gun
Bsus2         D
No I don't have a gun
 
 
Свернуть Распечатать

Видео