Nirvana - In Bloom, аккорды

Прокрутка
Тональность
Шрифт
100
Вступление:
|-------------------------------------|
|-------------------------------------|
|-3---3-3-3---------------------------| x2 
|-3---3-3-3-5-5-5--3---3-3-3-6-6-6----|
|-1---1-1-1-5-5-5--3---3-3-3-6-6-6----|
|-----------3-3-3--1---1-1-1-4-4-4----|

Куплет:
|--------------------------------------------------------------------|
|--------------------------------------------------------------------|
|--------------------------------------------------------------------|
|-------------------------------------1-1-1-1-1---1------------------|
|--1--1-1-1--1---1-----------------------------------2-2-2-2---------|
|------------------2--2-2-2-2-2----2-------------------------5-5-5-5-|

|-------------------------------------------------------|
|-------------------------------------------------------|
|--------------------------8-8-8-8-8--------------------|
|--8-8-8-8-8---4-4-4-4-4---8-8-8-8-8---9-9-9---7-7-7/8--|
|--8-8-8-8-8---4-4-4-4-4---6-6-6-6-6---9-9-9---7-7-7/8--|
|--6-6-6-6-6---2-2-2-2-2---------------7-7-7---5-5-5/6--|

|-----------------------|
|-----------------------|
|-----------------------|
|-8----8-85----5-5------|
|-8----8-85----5-5------|
|-6----6-63----3-3------|
He's the one...

|--------------------------------|
|--------------------------------|
|-5--5-5-5/8-8-8-8-8-------------|
|-5--5-5-5/8-8-8-8-8-------------|
|-3--3-3-3/6-6-6-6-6-------------|
|--------------------------------|
Don't know what it means...

Соло:
|--8----8-----10----6-----------------------------------|
|--------------------------------------)---------)-)----|
|----------------------7----9-10-9-10-10-9-9-7-9-9-9-7--|
|-------------------------------------------------------|
|-------------------------------------------------------|
|-------------------------------------------------------|
) )
|-12--------------------------)--)--8----)--)-----------|
|----------------------------12-13-----7-7--9-8---------|
|-------12-14-12-14-15-14-15----------------------------|
|-------------------------------------------------------|
|-------------------------------------------------------|
|-------------------------------------------------------|

Лирика:

Sell the kids for food 
Weather changes moods 
Spring is here again 
Reproductive glands 

He's the one 
Who likes all the pretty songs 
And he likes to sing along 
And he likes to shoot his gun 
But he knows not what it mean 
Knows not what it mean 
And I say 
He's the one 
Who likes all the pretty songs 
And he likes to sing along 
And he likes to shoot his gun 
But he knows not what it mean 
Knows not what it mean 
And I say yeah 

We can have some more 
Nature is a whore 
Bruises on the fruit 
Tender age in bloom 

He's the one 
Who likes all the pretty songs 
And he likes to sing along 
And he likes to shoot his gun 
But he knows not what it mean 
Knows not what it mean 
And I say 
He's the one 
Who likes all the pretty songs 
And he likes to sing along 
And he likes to shoot his gun 
But he knows not what it mean 
Knows not what it mean 
And I say yeah 

He's the one 
Who likes all the pretty songs 
And he likes to sing along 
And he likes to shoot his gun 
But he knows not what it mean 
Knows not what it mean 
And I say 
He's the one 
Who likes all the pretty songs 
And he likes to sing along 
And he likes to shoot his gun 
But he knows not what it mean 
Knows not what it mean 
And I say yeah 
 
 

Видео