Nirvana - School, аккорды

Прокрутка
Тональность
Шрифт
100
E||-------------------|-----------------------------------------|
B||-------------------|-----------------------------------------|
G||-------------------|-----------------------------------------|
D||-------------------|-----------------------------------------|
A||-------------------|-----------------------------------------|
E||--0----------------|--0--0-0-5b0-0-5b0-0-0-0-0-0-5b----------|

-----------------------------------------|--------------------------------|
-----------------------------------------|--------------------------------|
-----------------------------------------|--------------------------------|
-----------------------------------------|--------------------------------|
-----------------------------------------|--------------------------------|
--0--0-0-5b0-0-5b0-0-0-0-0-0-5b----------|--0--0-0-5b0-0-5b0-0-0-0-0-0-5b-|

-----------------------------------------|--------------------------------|
-----------------------------------------|--------------------------------|
-----------------------------------------|--------------------------------|
-----------------------------------------|--------------------------------|
-----------------------------------------|--------------------------------|
--0--0-0-5b0-0-5b0-0-0-0-0-0-5b----------|--0--0-0-5b0-0-5b0-0-0-0-0-0-5b-|

----------------------------------------|--------------------------------|
----------------------------------------|--------------------------------|
----------------------------------------|--------------------------------|
----------------------------------------|--------------------------------|
----------------------------------------|--------------------------------|
--0--0-0-5b0-0-5b0-0-0-0-0-0-5b---------|--0--0-0-5b0-0-5b0-0-0-0-0-0-5b-|

---------------------------------------|------------------------------|
---------------------------------------|--5---5-5--5-5-5--------------|
---------------------------------------|--5---5-5--5-5-5--2-2--2--2-2-|
---------------------------------------|--5---5-5--5-5-5--2-2--2--2-2-|
---------------------------------------|--3---3-3--3-3-3--0-0--0--0-0-|
--0--0-0-5b0-0-5b0-0-0-0-0--0----------|------------------------------|

-------------------------------------|-------------------------------|
-------------------------------------|--5---5-5--5-5-5---------------|
-------------------------7--7--7-7---|--5---5-5--5-5-5--2-2--2-2-2-2-|
--2---2-2---2-2-2-2---7--7--7-7------|--5---5-5--5-5-5--2-2--2-2-2-2-|
--2---2-2---2-2-2-2---5--5--5-5------|--3---3-3--3-3-3--0-0--0-0-0-0-|
--0---0-0---0-0-0-0---5--5--5-5------|-------------------------------|

----------------------------------------|--------------------------------|
----------------------------------------|--------------------------------|
----------------------------------------|--------------------------------|
----------------------------------------|--------------------------------|
----------------------------------------|--------------------------------|
--0--0-0-5b0-0-5b0-0-0-0-0-0-5b---------|--0--0-0-5b0-0-5b0-0-0-0-0-0-5b-|

---------------------------------------|--------------------------------|
---------------------------------------|--------------------------------|
---------------------------------------|--------------------------------|
---------------------------------------|--------------------------------|
---------------------------------------|--------------------------------|
--0--0-0-5b0-0-5b0-0-0-0-0-0-5b--------|--0--0-0-5b0-0-5b0-0-0-0-0-0-5b-|

--------------------------------|--------------------------------|
--------------------------------|--------------------------------|
--------------------------------|--------------------------------|
--------------------------------|--------------------------------|
--------------------------------|--------------------------------|
--0--0-0-5b0-0-5b0-0-0-0-0-0-5b-|--0--0-0-5b0-0-5b0-0-0-0-0-0-5b-|

-----------------------------|-----------------------------------|
--5---5-5--5-5-5-------------|-----------------------------------|
--5---5-5--5-5-5-2-2--2--2-2-|-------------------------7--7--7-7-|
--5---5-5--5-5-5-2-2--2--2-2-|---2---2-2---2-2-2-2--7--7--7-7----|
--3---3-3--3-3-3-0-0--0--0-0-|---2---2-2---2-2-2-2--5--5--5-5----|
-----------------------------|---0---0-0---0-0-0-0--5--5--5-5----|

------------------------------|--------------------------------------------11-11------|
--5---5-5--5-5-5--------------|--------------------------------------------10-10------|
--5---5-5--5-5-5-2-2--2-2-2-2-|-------------------------------------------------------|
--5---5-5--5-5-5-2-2--2-2-2-2-|-------------8--10--11--11--11—11--11-11---------------|
--3---3-3--3-3-3-0-0--0-0-0-0-|--0--0-0---7---9---10--10--10---10--10-10--------------|
------------------------------|--0--0-0-------------------------------------------0-0-|

-------------------------------------------------11-11-----|
-------------------------------------------------10-10-----|
-----------------------------------------------------------|
------------11--11--11--11------11-----11------------------|
------0-0--10--10--10--10--10-----10-----------------------|
--0--0-0-----------------------------------------------0-0-|

----------------------------------------------------------|
----------------------------------------------------------|
-----10--10—10--10---11--11---12---12--12--14-14-14-------|
-----9----9---9-----9----10--10—11—11--11--13-13-13-------|
-----8----8---8-----8----9----9----10---10--10--12-12-12--|
--0-------------------------------------------------------|

-----------------------------------------|-----------------------------------|
-----------------------------------------|--2r--0-2r-0-2r-0-2r---------------|
-----14-14-14-14--12--12-12-12-12-12-12/-|--2r--0-2r-0-2r-0-2r--2h0----------|
-----13-13-13-13--11--11-11-11-11-11-11/-|-------------------------2h0-------|
-----12-12-12-12--10--10-10-10-10-10-10/-|-----------------------------------|
--0--------------------------------------|--------------------------------3b-|

----------------------------------------|
----------------------------------------|
----------------------------------------|
--0--7-7-7-12--12--12-12h14-14h12h14h12-|
--0--7-7-7------------------------------|
----------------------------------------|

--------------------------------------------|
--------------------------------------------|
-----------------------------------------12-|
--14--14h0-14h0-0-14~-x-12-14-14h12-14------|
--------------------------------------------|
--------------------------------------------|

----------------------------------------------|
---------------14-14--------------------------|
--12--12-14-14-14-14-15~-14-14-12-14-12-14-12-|
----------------------------------------------|
----------------------------------------------|
----------------------------------------------|

-----------------------------------------------------|
-----------------------------------------------------|
---14b-14h0-14h0-12-14b-14-14h12-14h12-14h12---------|
---------------------------------------------0-----0-|
-----------------------------------------------------|
-----------------------------------------------------|

-------------------------------------------|
-------------0-0---------------------------|
--14r---14-0-0----------14-14-12-12-12-12--|
-------------0-0-12--14-14-14-14-14-14-14--|
-------------0-----------------------------|
-------------------------------------------|

----------------------------------------|--------------------|
----------------------------------------|--------------------|
----------------------------------------|--------------------|
--14~---14/12-12-12/11-11-11/9-9/7-7/6--|--7r--------------0-|
----------------------------------------|--------------------|
----------------------------------------|--------------------|

------------------|------------------|---------12---------|
------------------|------------------|--------------------|
------------------|------------------|--------------------|
------------------|------------------|----------------5---|
------------------|------------------|--------------------|
------------------|------------------|--------------------|

-----------------------------|---------------------------------|
--5---5-5--5-5-5-------------|---------------------------------|
--5---5-5--5-5-5-2-2--2--2-2-|-----------------------7--7--7-7-|
--5---5-5--5-5-5-2-2--2--2-2-|--2---2-2--2-2-2-2--7--7--7-7----|
--3---3-3--3-3-3-0-0--0--0-0-|--2---2-2--2-2-2-2--5--5--5-5----|
-----------------------------|--0---0-0--0-0-0-0--5--5--5-5----|

-----------------------------|---------------------------------|
--5---5-5--5-5-5-------------|---------------------------------|
--5---5-5--5-5-5-2-2--2--2-2-|-----------------------7--7--7-7-|
--5---5-5--5-5-5-2-2--2--2-2-|--2---2-2--2-2-2-2--7--7--7-7----|
--3---3-3--3-3-3-0-0--0--0-0-|--2---2-2--2-2-2-2--5--5--5-5----|
-----------------------------|--0---0-0--0-0-0-0--5--5--5-5----|

-----------------------------|---------------------------------|
--5---5-5--5-5-5-------------|---------------------------------|
--5---5-5--5-5-5-2-2--2--2-2-|-----------------------7--7--7-7-|
--5---5-5--5-5-5-2-2--2--2-2-|--2---2-2--2-2-2-2--7--7--7-7----|
--3---3-3--3-3-3-0-0--0--0-0-|--2---2-2--2-2-2-2--5--5--5-5----|
-----------------------------|--0---0-0--0-0-0-0--5--5--5-5----|

----------------------------||
--5---5-5--5-5-5------------||
--5---5-5--5-5-5-2-2--2--2--||
--5---5-5--5-5-5-2-2--2--2--||
--3---3-3--3-3-3-0-0--0--0--||
----------------------------||

Комментарий автора:

Lyrics:

Won´t you believe it 
It´s just my luck 
(x4) 
No recess 
(x3) 
Won´t you believe it 
It´s just my luck 
(x4) 
No recess 
(x3) 
You´re in high school again 
(x8) 
No recess 
(x7) 
 
 

Видео